Red Hot Chili Peppers

Red Hot Chili Peppers - Johnny Kick Hole In The Sky bass tab

Red Hot Chili Peppers

Johnny kick hole in the sky

Tabbed by Truijllo

Verse 1

G |---------------------------------------------------------------------

D |---------------------------------------------------------------------

A |---------------------------------------------------------------------

E |-5-4-3-2--5-*-3-*-2--5-4-3-2--5-*-3-*-2------------------------------

S S S S S S S S S S S S S S S S S S

Variation ( Flea here improvise, the bass sound is covered under the guitar sound

and it is really syncopated...hard to trascribe )

G |---------------------------------------------------------------------

D |---------------------------------------------------------------------

A |-----3-----3-5-3-----------------------------------------------------

E |-3h5---3h5-------0-5-3-2-0-------------------------------------------

S P S P P P S S S S S

Pre-chorus

G |---------------------------------------------------------------------

D |-------3---------------3---------------------------------------------

A |-3-5-5---5-5-3-5-5-3-5---5-5---------3-------------3-----------------

E |-------------------------------3-5-5---5-5-3-5-3-5---5-5-------------

S S S S S S S S S S S S S S S S S S S S S S S S S S S

Chorus

G |---7---7---7---7---10--10--10--10------------------------------------

D |---------------------------------------------------------------------

A |-5---5---5---5---8---8---8---8---------------------------------------

E |---------------------------------------------------------------------

S P S P S P S P S P S P S P S P

vERSE2

G |-9-9-7-7--------------------------9-9-7-7----------------------------

D |----------9-9-8-8-7-7-5-5-7-7-5-5---------9-9-8-8-7-7-5-5------------

A |----------------------------------------------------------7-7-5-5----

E |---------------------------------------------------------------------

G |---------------------------------------------------------------------

D |---------------------------------------------------------------------

A |---------------------------------------------------------------------

E |---------------------------------------------------------------------

Get this song at:  amazon.com sheetmusicplus.com

Share your thoughts

0 Comments found