Red Hot Chili Peppers

Red Hot Chili Peppers - Warlocks guitar tab

The Red Hot Chili Peppers

Warlocks

Stadium Arcadium (2006)

By Alex Barton

E----------------------------------------------| X3

B--3---5-------3---55------3---5-------3---55--|

G----------------------------------------------|

D----------------------------------------------|

A----------------------------------------------|

E----------------------------------------------|

E--17-17-17-17-17-17-17-17--15-15-15-15-15-15-15-15--|

B--17-17-17-17-17-17-17-17--15-15-15-15-15-15-15-15--|

G--17-17-17-17-17-17-17-17--15-15-15-15-15-15-15-15--|

D----------------------------------------------------|

A----------------------------------------------------|

E----------------------------------------------------| \\

\\

X2

/

E--12-12-12-12-12-12-12-12--| |---------------------| /

B--12-12-12-12-12-12-12-12--| |--12--12--12--12-----|

G--12-12-12-12-12-12-12-12--| |--12--12--12--12h14--|

D---------------------------| |---------------------|

A---------------------------| |---------------------|

E---------------------------| |---------------------|

E--------------------------------------------| X2

B----------------14-19----------------14-21--|

G-------------14-------------------14--------|

D--14-14----------------14-14----------------|

A--------12-------------------12-------------|

E--------------------------------------------|

E----------------------------------------------| X2

B--3---5-------3---55------3---5-------3---55--|

G----------------------------------------------|

D----------------------------------------------|

A----------------------------------------------|

E----------------------------------------------|

E--17-17-17-17-17-17-17-17--15-15-15-15-15-15-15-15--|

B--17-17-17-17-17-17-17-17--15-15-15-15-15-15-15-15--|

G--17-17-17-17-17-17-17-17--15-15-15-15-15-15-15-15--|

D----------------------------------------------------|

A----------------------------------------------------|

E----------------------------------------------------| \\

\\

X2

/

E--12-12-12-12-12-12-12-12--| |---------------------| /

B--12-12-12-12-12-12-12-12--| |--12--12--12--12-----|

G--12-12-12-12-12-12-12-12--| |--12--12--12--12h14--|

D---------------------------| |---------------------|

A---------------------------| |---------------------|

E---------------------------| |---------------------|

E----------------------------------------------|

B--3---5-------3---55------3---5-------3---55--|

G----------------------------------------------|

D----------------------------------------------|

A----------------------------------------------|

E----------------------------------------------|

E--15-15-15-15-15-15-15-15-15-15-15-15-15-15-15-15--|

B--15-15-15-15-15-15-15-15-15-15-15-15-15-15-15-15--|

G--15-15-15-15-15-15-15-15-15-15-15-15-15-15-15-15--|

D---------------------------------------------------|

A---------------------------------------------------|

E---------------------------------------------------| \\

\\

x2

/

E--12-12-12-12-12-12-12-12-12-12-12-12-12-12-12-12--| /

B--12-12-12-12-12-12-12-12-12-12-12-12-12-12-12-12--|

G--12-12-12-12-12-12-12-12-12-12-12-12-12-12-12-12--|

D---------------------------------------------------|

A---------------------------------------------------|

E---------------------------------------------------|

E--12b--12rb--12(b)--12(b)--12ub--12b--12rb--12(b)--12(b)--12ub--|

B----------------------------------------------------------------|

G----------------------------------------------------------------|

D----------------------------------------------------------------|

A----------------------------------------------------------------|

E----------------------------------------------------------------|

E--12b--13b--13b--13--13b--13b--|

B-------------------------------|

G-------------------------------|

D-------------------------------|

A-------------------------------|

E-------------------------------|

E---------------------------------------------------------------|

B--12hp13--12hp13--10-------------------------------------------|

G----------------------11hp12--9--------------------------------|

D---------------------------------10hp11--8---------------------|

A--------------------------------------------9hp10--7-----------|

E------------------------------------------------------8hp9--6--|

E---------------------------------------------------------------|

B-------------------------------------------------10--12b--13b--|

G---------------------------------------9--11h12----------------|

D-----------------------------8--10h11--------------------------|

A--------------------7--9h10------------------------------------|

E--8hp9--6--6--8--9---------------------------------------------|

E----------------------------------------------|

B--3---5-------3---55------3---5-------3---55--|

G----------------------------------------------|

D----------------------------------------------|

A----------------------------------------------|

E----------------------------------------------|

E--17-17-17-17-17-17-17-17--15-15-15-15-15-15-15-15--|

B--17-17-17-17-17-17-17-17--15-15-15-15-15-15-15-15--|

G--17-17-17-17-17-17-17-17--15-15-15-15-15-15-15-15--|

D----------------------------------------------------|

A----------------------------------------------------|

E----------------------------------------------------| \\

\\

X2

/

E--12-12-12-12-12-12-12-12--| |---------------------| /

B--12-12-12-12-12-12-12-12--| |--12--12--12--12-----|

G--12-12-12-12-12-12-12-12--| |--12--12--12--12h14--|

D---------------------------| |---------------------|

A---------------------------| |---------------------|

E---------------------------| |---------------------|

Added by tabs-database.com and our distinguished partners

Get this song at:  amazon.com sheetmusicplus.com

Share your thoughts

0 Comments found