Red Hot Chili Peppers

Red Hot Chili Peppers - Catholic School Girls Rule bass tab

Chorus

G |---------------------------------------------------------------------

D |---------------------------------------------------------------------

A |-------------------------3---------------------------------5---------

E |--3-5-5---3-5-5---3-5-5----5-5-3-5-5---3-5-5--3-5-5--3-5-5---5-3-5---

riff

G |---------------------------------------------------------------------

D |---------------------------------------------------------------------

A |---3-2---------------------------------------------------------------

E |-5-------------------------------------------------------------------

variation

G |---------------------------------------------------------------------

D |---------------------------------------------------------------------

A |---------------------------------------------------------------------

E |-1-2-2-3----...-...-...--/3-4-4-5------------------------------------

verse 2

G |---------------------------------------------------------------------

D |--3-------5-------3---5--7-------------------------------------------

A |----5-5-5---5-5-5---5--5---5-------...-...--7-7-7---7-7-7---7-7-7-7-7...

E |---------------------------------------------------------------------

G |---------------------------------------------------------------------

D |---------------------------------------------------------------------

A |---------------------------------------------------------------------

E |---------------------------------------------------------------------

Get this song at:  amazon.com sheetmusicplus.com

Share your thoughts

0 Comments found