Red Hot Chili Peppers

Red Hot Chili Peppers - Otherside Guitar Tab guitar tab

Intro

e---------------------------------------------------------

B---------------------------------------------------------

G--------------2---2---4-2-0------------------------------

D--2---2---2-------------------2------0---0---0-----------

A---------------------------------------------------------

E---------------------------------------------------------

Chorus 1

e---------------------------------------------------------

B---------------------------------------------------------

G--------------2---2---4-2-0------------------------------

D--2---2---2-------------------2---2--2-2---0---0---0-----

A---------------------------------------------------------

E---------------------------------------------------------

("How long...how long...")

(continued; end on)

e---------------------------------------------------------

B---------------------------------------------------------

G--------------2---2---2--\9---9---9----------------------

D--2---2---2---------------------------9---9---9----------

A---------------------------------------------------------

E---------------------------------------------------------

Verse Fill

e--------12-------------------15--------|--3-----5--------

B--------------------------12-----------|--3-----5--------

G---------------------------------------|--4-----6--------

D---------------------------------------|--5-----7--------

A--0--0-----0-0-------------------------|--5-----7--------

E------------------/12--12--------12\---|--3-----5--------

("I heard your voice...")

Pre-Chorus

e--3-----5-----3-----5-----3-----------5------------------

B--3-----5-----3-----5-----3-----------5------------------

G--4-----6-----4-----6-----4-----------6------------------

D--5-----7-----5-----7-----5-----------7------------------

A--5-----7-----5-----7-----5-----------7------------------

E--3-----6-----3-----5-----3-----------5------------------

("I've got to take it on the otherside...")

Chorus 2

e---------------------------------------------------------

B---------------------------------------------------------

G--------------2---2---4-2-0---------------0---0---2------

D--2---2---2-------------------2---2---2------------------

A---------------------------------------------------------

E---------------------------------------------------------

(continued)

e---------------------------------------------------------

B---------------------------------------------------------

G--------------2---2---4-2-0------------------------------

D--2---2---2-------------------2---2---2---0--0--0--0-----

A---------------------------------------------------------

E---------------------------------------------------------

(continued)

e---------------------------------------------------------

B---------------------------------------------------------

G----------0---2---2---2/--9---9---9---12--12--12--12-----

D--2---2--------------------------------------------------

A---------------------------------------------------------

E---------------------------------------------------------

Chorus 3

e---------------------------------------------------------

B---------------------------------------------------------

G--------------2---2---4-2-0------------------------------

D--2---2---2-------------------2---2---2---0---0---0------

A---------------------------------------------------------

E---------------------------------------------------------

(play above 2 times then end on:)

e---------------------------------------------------------

B---------------------------------------------------------

G----------0----------------------------------------------

D--2---2--------------------------------------------------

A-------------0---0--0-0---3---3--3-3---------------------

E---------------------------------------3---3--3-3--------

Bridge

e--------------12---12---12---------------12---12---12----

B--------------12---12---12---------------12---12---12----

G--9---9---9------------------9---9---9-------------------

D--9---9---9------------------9---9---9-------------------

A--7---7---7------------------7---7---7-------------------

E---------------------------------------------------------

("Take me on...")

Solo

e--12\---0----0--0---0--0----0----0--0---0--0--0---0--0---

B--12\--10---10-10--10-10-/-17---17-17--17-17-17--20-17---

G---------------------------------------------------------

D---------------------------------------------------------

A---------------------------------------------------------

E---------------------------------------------------------

(continued)

e---0---0--0--0---0--0--0---0--0--0---0--0--0-------------

B--17--17-17-17--20-17-17--20-17-17--20-17-17-------------

G---------------------------------------------------------

D---------------------------------------------------------

A---------------------------------------------------------

E---------------------------------------------------------

Riff

e---0---0--0---0--0---0---0--0---0--0---0--0--0-----------

B--17--17-17--17-17--17--17-17--17-17--20-17-17-----------

G---------------------------------------------------------

D---------------------------------------------------------

A---------------------------------------------------------

E---------------------------------------------------------

Outro

e---------------------------------------------------------

B--\------------------------------------------------------

G---------------------------------------------------------

D-------7-------------------------------------------------

A-------x-------------------------------------------------

E-------5-------------------------------------------------

Intro

Chorus 1

Verse

Fill

Verse

Pre-Chorus

Chorus 2

Verse

Fill

Verse

Pre-Chorus

Chorus 3

Bridge

Solo

Riff

Outro

Get this song at:  amazon.com sheetmusicplus.com

Share your thoughts

0 Comments found