Red Hot Chili Peppers

Red Hot Chili Peppers - Cmon Girl guitar tab

Em

e]----7~--|

B]----8~--|

G]---9----| intro x8

D]--9-----|

A]--------|

E]--------|

-you can figure out when to play it

e]---88---|--------|--------|---------|

B]-77--77-|---77---|---99---|---55----|

G]--------|-77--77-|-99--99-|-55--55--|

D]--------|--------|--------|---------|

A]--------|--------|--------|---------|

E]--------|--------|--------|---------|

"tell me.."

e]--------------------------------|

B]--------------------------------|

G]--7h9r7h9r7h9r7h9r7h9---etc..---|

_____________________________________________________________________

pre-chorus

e]---5~-|----7~-|---3~-|-----10~-----|

B]---5~-|----7~-|---3~-|-----10~-----|

G]--5---|---9---|--4---|---11--------|

D]-7----|-10----|-5----|-12----------|

A]------|-------|------|-------------|

E]------|-------|------|-------------|

__________________________________________________________________

Chorus--

dont play on the first chorus

e]-12--

B]-12--

G]--

D]--

A]--

E]--

_________________________________________________________________

cool midpoint solo's (after first chorus in order):::

e]-12r10----10h12--------------------10----10---------------|

B]-------12--------12r10-------10h12----12----12b13r12------|

G]-----------------------12-12------------------------------|

D]----------------------------------------------------------|

A]----------------------------------------------------------|

E]--------------------------------------------------at 1:18-|

e]-7b8r7-------7b8r7-------------|

B]-------8-----------8-----------|

G]-------------------------------|

D]-------------------------------|

A]-------------------------------|

E]-------------------------------| at 1:26

e]-14b15-15r14--12----------------|

B]----------------15-15-12~-------|

G]--------------------------------|

D]--------------------------------|

A]--------------------------------|

E]--------------------------------|at 1:33

e]-------------------------19r17-15--------------------------|

B]------15-------------------------15------------------------|

G]-14b16---14r12----14-12----12h14----14-12-14-14r12~--------|

D]---------------14-------14---------------------------------|

A]-----------------------------------------------------------|

E]-------------------------------------------------at 1:39---|

e]-----------------|--------------------|

B]-----------------|------12v~----------|

G]-----------------|-s11v~--------------|

D]-------12--------|--------------------|

A]-12h14---14-12p--|--------------------|

E]-----------------|--------------------|

_____________________________________________________________________

actual solo

e]-----------------------|-------------------------------|

B]--------7-9b12r9-9x9p7~|-8p7------9--------------------|

G]-7h9--9----------------|-----9-----7-------------------|

D]-----------------------|------9~-----10--9h10-9h10~----|

A]-----------------------|-------------------------------|

E]-----------------------|-------------------------------|

e]-------15r14p12--19r17p15--23r21p19-|-19p17p15---|

B]-17p15------------------------------|------------|

G]------------------------------------|------------|

D]------------------------------------|------------|

A]------------------------------------|------------|

E]------------------------------------|------------|

e]---------------------------------xx---------------|

B]-13~----15-15-15-15-15p13--17r15-xx--15p12-- Added by tabs-database.com and our distinguished partners

Get this song at:  amazon.com sheetmusicplus.com

Share your thoughts

0 Comments found