Red Hot Chili Peppers

Red Hot Chili Peppers - Sexmaniac (cant Stop) bass tab

Bass comes in straight away!!

Intro

G|----------------------------------------------------------------------------------|

D|----------------------------------------------------------------------------------|

A|-7-7-7-7-7-7-7-7-7-7-7-7-7-7-7-7-7-7-7-7-7-7-7-7----------------------------------|

E|-------------------------------------------------0-0-0-0-0-0-0-0-0-0-0-0-0-0------|

Bass comes in after the Guitar plays the riff 2 times

Verse

G|---7-9-----7-9-------7-9-----7-9--------------------------------------------------|

D|---------------------------------------9-9-----9-9-----10-10-----10-10------------|

A|-7-----7-7-----7-7-5-----5-5-----5-5----------------------------------------------|

E|-------------------------------------7-----7-7-----7-8-------8-8------------------|

G|---7-9-----7-9-------7-9-----7-9--------------------------------------------------|

D|---------------------------------------9-9-----9-9-----10-10-----10-10------------|

A|-7-----7-7-----7-7-5-----5-5-----5-5----------------------------------------------|

E|-------------------------------------7-----7-7-----7-8-------8-8------------------|

G|---7-9-----7-9-------7-9-----7-9--------------------------------------------------|

D|---------------------------------------9-9-----9-9-----10-10-----10-10------------|

A|-7-----7-7-----7-7-5-----5-5-----5-5----------------------------------------------|

E|-------------------------------------7-----7-7-----7-8-------8-8------------------|

Chorus

G|----------------------------------------------------------------------------------|

D|----9-10-12----9----9-10-------9-10-12----9----9-10-/14-12-------9-10-12----------|

A|-10--------------12---------10--------------12----------------10------------------|

E|----------------------------------------------------------------------------------|

G|---12-----------------------------------------------------------------------------|

D|-9----9-10-------9-10-12---10-11--------------------------------------------------|

A|--------------10------------------------------------------------------------------|

E|----------------------------------------------------------------------------------|

Verse

G|---7-9-----7-9-------7-9-----7-9--------------------------------------------------|

D|---------------------------------------9-9-----9-9-----10-10-----10-10------------|

A|-7-----7-7-----7-7-5-----5-5-----5-5----------------------------------------------|

E|-------------------------------------7-----7-7-----7-8-------8-8------------------|

G|---7-9-----7-9-------7-9-----7-9--------------------------------------------------|

D|---------------------------------------9-9-----9-9-----10-10-----10-10------------|

A|-7-----7-7-----7-7-5-----5-5-----5-5----------------------------------------------|

E|-------------------------------------7-----7-7-----7-8-------8-8------------------|

G|---7-9-----7-9-------7-9-----7-9--------------------------------------------------|

D|---------------------------------------9-9-----9-9-----10-10-----10-10------------|

A|-7-----7-7-----7-7-5-----5-5-----5-5----------------------------------------------|

E|-------------------------------------7-----7-7-----7-8-------8-8------------------|

G|---7-9-----7-9-------7-9-----7-9--------------------------------------------------|

D|---------------------------------------9-9-----9-9-----10-10-----10-10------------|

A|-7-----7-7-----7-7-5-----5-5-----5-5----------------------------------------------|

E|-------------------------------------7-----7-7-----7-8-------8-8------------------|

Chorus

G|----------------------------------------------------------------------------------|

D|----9-10-12----9----9-10-------9-10-12----9----9-10-/14-12-------9-10-12----------|

A|-10--------------12---------10--------------12----------------10------------------|

E|----------------------------------------------------------------------------------|

G|---12-----------------------------------------------------------------------------|

D|-9----9-10-------9-10-12---10-11--------------------------------------------------|

A|--------------10------------------------------------------------------------------|

E|----------------------------------------------------------------------------------|

Interlude

G|---9-9------14--------------------------------------------------------------------|

D|---------------12-0-12------9-9------12-10---10-----------------------------------|

A|-7-----7--------------------------------------------------------------------------|

E|--------------------------7-----7----------8----10-11-----------------------------|

G|---9-9------14--------------------------------------------------------------------|

D|---------------12-0-12------9-9------12-10---10-----------------------------------|

A|-7-----7--------------------------------------------------------------------------|

E|--------------------------7-----7----------8----10-11-----------------------------|

G|---9-9------14--------------------------------------------------------------------|

D|---------------12-0-12------9-9------12-10---10-----------------------------------|

A|-7-----7--------------------------------------------------------------------------|

E|--------------------------7-----7----------8----10-11-----------------------------|

G|---9-9------14--------------------------------------------------------------------|

D|---------------12-0-12------9-9------12-10---10-----------------------------------|

A|-7-----7--------------------------------------------------------------------------|

E|--------------------------7-----7----------8----10-11-----------------------------|

Guitar Solo

G|---7-9-----7-9-------7-9-----7-9--------------------------------------------------|

D|---------------------------------------9-9-----9-9-----10-10----------12----------|

A|-7-----7-7-----7-7-5-----5-5-----5-5----------------------------12-14----10-12-10-|

E|-------------------------------------7-----7-7-----7-8-------8--------------------|

G|---7-9-----7-9-------7-9-----7-9--------------------------------------------------|

D|---------------------------------------9-9-----9-9-----10-10-----10-10------------|

A|-7-----7-7-----7-7-5-----5-5-----5-5----------------------------------------------|

E|-------------------------------------7-----7-7-----7-8-------8-8------------------|

Verse

G|---7-9-----7-9-------7-9-----7-9--------------------------------------------------|

D|---------------------------------------9-9-----9-9-----10-10-----10-10------------|

A|-7-----7-7-----7-7-5-----5-5-----5-5----------------------------------------------|

E|-------------------------------------7-----7-7-----7-8-------8-8------------------|

G|---7-9-----7-9-------7-9-----7-9--------------------------------------------------|

D|---------------------------------------9-9-----9-9-----10-10-----10-10------------|

A|-7-----7-7-----7-7-5-----5-5-----5-5----------------------------------------------|

E|-------------------------------------7-----7-7-----7-8-------8-8------------------|

G|---7-9-----7-9-------7-9-----7-9--------------------------------------------------|

D|---------------------------------------9-9-----9-9-----10-10-----10-10------------|

A|-7-----7-7-----7-7-5-----5-5-----5-5----------------------------------------------|

E|-------------------------------------7-----7-7-----7-8-------8-8------------------|

The End!!!

Get this song at:  amazon.com sheetmusicplus.com

Share your thoughts

0 Comments found