Red Hot Chili Peppers

Red Hot Chili Peppers - Lovercall guitar tab

Artist:Danko Jones

Song:LoverCall

Tabbed by:jordan (Jojeeninif@hotmail.com)

Well, i was looking at the original tab and i noticed it was off a bit off, so here are my

corrections:

Main Riff:

G-----------------

D---5-4-----------

A-------4---------

E-4-------0-2-4-4-

And The Chorus is like this:

G-----------------

D-----------------

A-2-2-2-2---------

E---------2-4-4-4-

And thats basically the whole song

Get this song at:  amazon.com sheetmusicplus.com

Share your thoughts

0 Comments found