Red Hot Chili Peppers

Red Hot Chili Peppers - Flea Video Bass Tab bass tab

This is the envelope filter jam with chad smith. its great to play just with

a drummer at a gig its a real crowd pleaser.

on some bits you can either play open e or 7th on a just alternate between them.

tune down a fret

~ bend note

Intro

Gb----------------|----------------|

Db---------7--9---|--7-------------|

Ab--7-10-7--------|--------9-------|

Eb----------------|----------------|

Gb----9--6h7--6h7-|--------9-------|------9--6h7--12|-14-16-14-------|

Db----------------|---9-7----9-7-5~|----------------|----------------|

Ab----------------|----------------|--7-------------|----------------|

Eb-0--------------|-0--------------|----------------|----------------|

Gb----------------|----------------|-------------9--|---4-6-4-7----5-|

Db-17-14-17-14----|----------------|----------------|------------7---|

Ab----------------|-17-14-14-16-17-|--14-----7------|----------------|

Eb----------------|----------------|----------------|----------------|

<-----Do this extremely fast------>

Gb---9-9-7-9-7----|----------------|------9--4-6-4-7|----5-----------|

Db------------9-7-|--5~------------|----------------|--7-------------|

Ab-7--------------|----------------|--7-------------|----------------|

Eb----------------|----------------|----------------|----------------|

Gb----7--9----6-7-|---------12-----|-11-----9--7----|------9----6h7--|

Db----------------|-----9----------|----------------|----------------|

Ab--7-------7-----|--7---------10--|-----9----------|--7-------------|

Eb----------------|----------------|----------------|----------------|

<-----palm-mute------------------->

Gb------------9---|--6--7----------|-------9---6h7--|-12-12-12-12-11-|

Db--5-------------|-------5--6~----|----------------|----------------|

Ab------7--7------|----------------|---7------------|----------------|

Eb----------------|----------------|----------------|----------------|

<----more palm muting----------->

Gb-11--10-10--10--|-----9---6h7----|----------9-----|--6-7-----------|

Db----------------|----------------|--5-------------|------5--7--5---|

Ab----------------|-7--------------|-----7-7--------|----------------|

Eb----------------|----------------|----------------|----------------|

Gb-----9---6h7----|-----9-7-6-7-9--|--9-7-6-7-9-----|----9-7-6-7-9---|

Db----------------|----------------|-------------5--|----------------|

Ab--7-------------|--7-------------|----------------|--7-------------|

Eb----------------|----------------|----------------|----------------|

Gb--9--9-7-6-12-14|-12-12----12----|-12----12-14-12-|----------12----|

Db----------------|-------14----14-|----14----------|-14---14--------|

Ab----------------|----------------|----------------|----------------|

Eb----------------|----------------|----------------|----------------|

Gb--16---19--16---|--12------------|--12---19--16---|-14--12---------|

Db----------------|------14----14--|----------------|---------14-----|

Ab----------------|----------------|----------------|----------------|

Eb----------------|----------------|----------------|----------------|

<-----do fast tremors on these bits--

Gb-----12--16--19-|--16---12-------|----------------|----------------|

Db--14------------|-----------14---|-14-13-12-14-13-|-12-------------|

Ab----------------|----------------|----------------|----14-13-12--14|

Eb----------------|----------------|----------------|----------------|

-------tremors-------------------->

Gb----------------|----------------|----------------|----------------|

Db----------------|----------------|----------------|----------------|

Ab-12-11-10--12-11|-10-------------|----------------|----------------|

Eb----------------|----12-11-10--12|--0---0---2---3-|-0-0--0-0--2--3-|

then he starts talking again.

gee that was a long 3 hours of rewinding and playing of the tape.

Get this song at:  amazon.com sheetmusicplus.com

Share your thoughts

0 Comments found