Red Hot Chili Peppers

Red Hot Chili Peppers - Under The Bridge "gutar Start" bass tab

baha this song starts with the guitar but am gunna show u how 2

play it on the bass omg crazy enyway

|-----2---7-2-------------------3---|

|---4---4-------------------4-----4-|

|-5------------4-2--------4---4-----|

|------------------5-4--2-----------|

|-------------------2---7h9-7-----|

|-4-2-----------4-----4-------4-6-|

|-----5-2--4//5---5-----------5-7-|

|---------------------------------|

|--------3----------------------2----7-2-|

|----4-----4--4-2-----------4------4-----|

|--4---4----------5-2--4//5---5----------|

|-2--------------------------------------|

|------------------3---3-----|

|--------------4-----4---4---|

|-4-2--------4---4---------4-|

|-----5-4--2-----------------|

and thats its prity simple and fun then after that u ply this

|---------------------|

|---------------------| repeat

|-----------------4---|

|-0~-7~-4-5-0~-7~---5-|

and that is the start of under the bridge then the bass hits in

and i cant be bumbed showin u that becuase my way of playin it s

wrong so check out the other ppls tab of under the bridge cuz there

tab are better than mine.

Get this song at:  amazon.com sheetmusicplus.com

Share your thoughts

0 Comments found