Red Hot Chili Peppers

Red Hot Chili Peppers - She's Only 18 bass tab

Song: She's only 18

Artist: Red Hot Chili Peppers

Album: Stadium Arcadium

Tabbed by: esteban herco

ok this is a great song so if you want to play it, please don't play

it the way it's shown in other tabs...

here's the right one

Intro/Verse:

G|---------3-----------3-----5--|

D|-----3-5---5-3---3-5-----5----|

A|-3h5-----------5-------5------|

E|------------------------------|

G|---------3-----------3--------|

D|-----3-5---5-3---3-5-----5-3--|

A|---5-----------5-------5------|

E|------------------------------|

Chorus:

G|--------------------------------------------| x3

D|-------------------------------3-3--3--3-3--|

A|-3--3--3/6-6-6--6--6-6----------------------|

E|-----------------------3--3--3--------------|

G|---------------------------------------5/7-7-7-77-|

D|--------------------------------------------------|

A|-3--3--3/6-6-6--6--6-6-5-5-5-5-5-5-5-5------------|

E|--------------------------------------------------|

Interlude:

G|--------------------------------------------|

D|-----------------------3--3--3--------------|

A|--3--3--3-1-1--1--1-1----------3-3--3---0-1-|

E|--------------------------------------3-----|

G|----------------------------------------------|

D|-----------------------3--3--5-3--------------|

A|--3--3--3-1-1--1--1-1------------3-3--3---0-1-|

E|----------------------------------------3-----|

G|---------------------------------3---53------|

D|-----------------------3--3----5---5---5-3-1-|

A|--3--3--3-1-1--1--1-1--------3---------------|

E|---------------------------------------------|

G|---------------------------------------------|

D|-----------------------3--3--3-3-3-3-3-3-3-3-|

A|--3--3--3-1-1--1--1-1------------------------|

E|---------------------------------------------|

enjoy it... i did

Get this song at:  amazon.com sheetmusicplus.com

Share your thoughts

0 Comments found