Red Hot Chili Peppers

Red Hot Chili Peppers - Dani California Alternite Solo guitar tab

ALTERNATE VERSION

E|------------------------------------------|

B|-----6------------------------------------|

G|---5---7~---------------------------------|

D|-7---------5--5--5---5--------------------|

A|-------------8--8-------8-5-5\----------5-|

E|-------------------------------3--1-3-1---|

E|--------------------------------------|

B|-----6------------------------13-15~/-|

G|---5---7~---5---5---5-7~---14---------|

D|-7--------7---7---7-------------------|

A|--------------------------------------|

E|--------------------------------------|

E|------------------------------------------|

B|-----6------------------------------------|

G|---5---7~---------------------------------|

D|-7---------5--5--5---5--------------------|

A|-------------8--8-------8-5-5\----------5-|

E|-------------------------------3--1-3-1---|

E|--------------------------------------

B|-----6------------------------13-15~--

G|---5---7~---5---5---5-7~---14---------

D|-7--------7---7---7-------------------

A|--------------------------------------

E|--------------------------------------

E---------------------------------------------------------------|

B------13-15-13----15-13----15-13----15-13----15-13----15-13----|

G---14----------14-------14-------14-------14-------14-------14-|

D---------------------------------------------------------------|

A---------------------------------------------------------------|

E---------------------------------------------------------------|

E|------------------------------------------|

B|-----6------------------------------------|

G|---5---7~----5---5---5------------5-------|

D|-7---------7---7---7---5--------7---5-----|

A|--------------------------8-5-5-------8-5-|

E|------------------------------------------|

E|-------------------------------------------|

B|-----6-------------------------13-15b16b15-|

G|---5---7~---5---5---5-7b----14-------------|

D|-7--------7---7---7------------------------|

A|-------------------------------------------|

E|-------------------------------------------|

E|------------------------------------------|

B|-----6------------------------------------|

G|---5---7~---------------------------------|

D|-7---------5--5--5---5--------------------|

A|-------------8--8-------8-5-5\----------5-|

E|-------------------------------3--1-3-1---|

E|----------------------------------------------| \

B|----10h13p10---10h13p10---10h13p10---10h13p10-| |

G|-b12--------b12--------b12--------b12---------| x8 |

D|----------------------------------------------| |

A|----------------------------------------------| |

E|----------------------------------------------| |

|

e|-13h15-15-13h15-15-13h15-15-13h15-15-| |

B|-------------------------------------| | - use phaser for

G|-------------------------------------| x4 | these parts.

D|-------------------------------------| | Up until break

A|-------------------------------------| | shown below.

E|-------------------------------------| |

/

e|------13-----------------------------------------|-------------|

B|-13h15--15-13-----10h13p10---10h13p10------------|-------------|

G|---------------b12--------b12--------b12~~p10----|-------------|

D|----------------------------------------------12~|--*tremelo*--|

A|-------------------------------------------------|-------------|

E|-------------------------------------------------|-------------|

Get this song at:  amazon.com sheetmusicplus.com

Share your thoughts

0 Comments found