Red Hot Chili Peppers

Red Hot Chili Peppers - Blood Sugar Sex Magik (whole Album) bass tab

I've been workin on this all day,enjoy.

KEY:

~ - hold out note for longer than most would notice (I don't mark

them every

time you hold out a note, just when it's not obvious.)

h - hammer-on

p - pull-off

/ - slide

// = slower slide (takes up more time)

b = bend

b= = bend continously

(5) - 5th fret harmonic

(7) - 7th fret harmonic

X = muted/ghost note (tends to be slapped or popped, in the Greeting

Song slapped with fingers)

S - slap

P - pop

1. THE POWER OF EQUALITY

VERSE:

G-----------------------------------------------------|

D-----------------------------------------------------|

A----9-8-7----------6---5-6-6-------6---5-6-6---9-8-7-|

Eb---------0----5/7---0---------5/7---0-------0-------|

G----------------------------------------------------------------|

D----------------------------------------------------------------|

A------6---4-6---5-6-4-------6---4-6---9-8---7---------6---5-6-6-|

Eb-5/7---0-----0---------5/7---0---------------0---5/7---0-------|

CHORUS:

S PP S PP S P S S S SS SS

G-----66---66---9-----------------|

D---------------------------------|

A-1/4----4----7-------------------|

Eb----------------0-6-5----55-66--|

S PP S PP S P S S S S S

G-----66---66---9----------------|

D--------------------------------|

A-1/4----4----7------------------|

Eb----------------0-6-5----5--6--|

S PP S PP S P S S S SS SS

G-----66---66---9------------------|

D----------------------------------|

A-1/4----4----7--------------------|

Eb----------------0-6-5----55-66---|

S PP S PP S P S S S

G-----66---66---9--------|

D------------------------|

A-1/4----4----7----------|

Eb----------------0-6-5--|

BRIDGE (envelope filter on- if you have a DOD FX25B, high sensitivity):

S S P PS P PS P

G------7--X--5--X--7--|

D---------------------|

A-5-5------3-----5----|

Eb--------------------|

S S P PS P PS P

G------7--X--5--X—6h7--|

D----------------------|

A-5-5------3-----5-----|

Eb---------------------|

S S P PS P PS P

G------7--X--5--X--7--|

D---------------------|

A-5-5------3-----5----|

Eb--------------------|

S S P PS P PS P

G------7--X--5--X—6h7--|

D----------------------|

A-5-5------3-----5-----|

Eb---------------------|

2. IF YOU HAVE TO ASK

VERSE:

G------------------------------------|

D------------------------------------|

A----5-3-0-----53-0------5-3-0-------|

D-0-----------5--------0-------5/17--|

G-----------------------------------------|

D-----------------------------------------|

A----5-3-0-----53-0-------5-3-0----2-3----|

D-0-----------5---------0--------------5--|

CHORUS:

G-----2/3---------------|

D--------------3-3/4-1--|

A-3--------3------------|

D-----------------------|

G-----2/3---------------3----|

D--------------1---4-5----3--|

A-3--------3-----3-----------|

D----------------------------|

G-----2/3---------------|

D--------------3-3/4-1--|

A-3--------3------------|

D-----------------------|

G-----2/3----------------|

D------------------------|

A-3--------3-----3----5--|

D--------------4----6----|

G-----2/3---------------|

D--------------3-3/4-1--|

A-3--------3------------|

D-----------------------|

G-----2/3--7h9--5-77------|

D---------------------3-1-|

A-3-----------------------|

D-------------------------|

G-----2/3---------------|

D--------------3-3/4-1--|

A-3--------3------------|

D-----------------------|

G-----2/3-------|

D---------------|

A-3--------3----|

D-------------4-|

INTERLUDE:

G-------------------------|

D--5--4--3------1-----0---|

A-----------3------1------|

D-------------------------|

G-----------------------------------------------------------|

D--5--4--3------1-----0-----5-4-3-----------1--0------------|

A-----------3------1---------------3h5p3-2----1-------------|

D-------------------------------------------------X-2-3-5---|

G---------------------------------|

D-5-4-3-----------1--0------------|

A--------3h5p3-2----1-------------|

D------------------------X-2-3-5--|

G---------------------------------|

D-5-4-3-----------1--0~~~~/12-----|

A--------3h5p3-2----1-------------|

D---------------------------------|

OUTRO:

G---------------1/2---5-45----------------------|

D--------------------3-------3------3-----------|

A------53-0---------------------3h5---5-----3---|

D--0--------5----------------------------5----0-|

3. BREAKING THE GIRL

VERSE 1

G--------------------------------------------------------|

D-----6---6------4-6----6---6----6-4------6---6------4-6-|

A-------6------6----------6----------6------6------6-----|

E---4--------4--------4--------4--------4-------4--------|

[Play time 1-3 ] [Play on the forth time through]

G------------------------------------------------------|

D---6---6----6---6----6---6----6---6----6---6----6---6-|

A-----6--------6--------6--------6--------6--------6---|

E-4--------4--------4--------4--------4--------4-------|

BRIDGE 1

G----------------------------------------------------------------------------|

D---------1-2-4-------------------6---6-------4--6-6-6--6-4--------------1-4-|

A-2—-2-2-----------------4----------6------456--------------6--2--2-2--2-----|

E----------------2--2-2----2/6--4--------4-----------------------------------|

G--------------------------------------------|

D------------------------------2-2-2--2---2--|

A---------------------------2-----------2----|

E-2--2-2--2-2-6--0-0-0--0-0------------------|

CHORUS 1

G--------------------------------------------------------|

D--------------------------------------------------------|

A----------------------4-4-4--6-6-6--4-4-4---------------|

E-4-4-4--6-6-6--7-7-7-----------------------7-7-7--6-6-6-|

G---------------------------------------------------------|

D--------------------------------------8-6--8-6-8--9-8-6\-|

A----------------------4-4-4-/7-7-7--7--------------------|

E-4-4-4--6-6-6--7-7-7-------------------------------------|

G--------------------------------------------------------|

D--------------------------------------------------------|

A----------------------4-4-4--6-6-6--4-4-4---------------|

E-4-4-4--6-6-6--7-7-7-----------------------7-7-7--6-6-6-|

G--------------------------------------------------------|

D--------------------------------------------------------|

A----------------------4-4-4-/7-7-7--7-7-7--7-7-7--6-6-6-|

E-4-4-4--6-6-6--7-7-7------------------------------------|

VERSE 2

G--------------------------------------------------------|

D-----6---6------4-6----6---6----6-4------6----------4-6-|

A-------6------6----------6----------6-------------6-----|

E---4--------4--------4--------4--------4-------4--------|

[Play time 1-3] [Play on the forth time through]

G------------------------------------------------------|

D---6---6----6---6----6---6----6---6----6---6----6---6-|

A-----6--------6--------6--------6--------6--------6---|

E-4--------4--------4--------4--------4--------4-------|

BRIDGE 2

G---------------------------------------------------------------------------|

D---------1-2-4-------------------6---6------4--6-6-6--464------------1-2-4-|

A-2—-2-2-----------------4----------6------6---------------6--2--2-2--------|

E----------------2--2-2----2/6--4--------4----------------------------------|

G---------------------------------------------|

D---------------------------------------------|

A-----------------------------/7-7-7--7---7/\-|

E-2--2-2--2-2-6--0-0-0--0-0-7-----------7-----|

CHORUS 2

G--------------------------------------------------------|

D--------------------------------------------------------|

A----------------------4-4-4--6-6-6--4-4-4---------------|

E-4-4-4--6-6-6--7-7-7-----------------------7-7-7--6-6-6-|

G-----------------------------------------------6---------|

D--------------------------------------8-6--8-9----9-8-6\-|

A----------------------4-4-4-/7-7-7--7--------------------|

E-4-4-4--6-6-6--7-7-7-------------------------------------|

G--------------------------------------------------------|

D--------------------------------------------------------|

A----------------------4-4-4--6-6-6--4-4-4---------------|

E-4-4-4--6-6-6--7-7-7-----------------------7-7-7--6-6-6-|

G--------------------------------------------------------|

D--------------------------------------------------------|

A----------------------4-4-4-/7-7-7--7-7-7--7-7-7--6-6-6-|

E-4-4-4--6-6-6--7-7-7------------------------------------|

INTERLUDE

G----------------------------|

D----------------------------|

A----------------------2-2-2-|

E-4-424----024----424--------|

FINAL CHORUS/OUTRO

G--------------------------------------------------------|

D--------------------------------------------------------|

A----------------------4-4-4--6-6-6--4-4-4---------------|

E-4-4-4--6-6-6--7-7-7-----------------------7-7-7--6-6-6-|

G---------------------------------------------6-----------|

D--------------------------------------6-8--9---9--8-9-8\-|

A----------------------4-4-4-/7-7-7--7--------------------|

E-4-4-4--6-6-6--7-7-7-------------------------------------|

G------------------------------------------------------------|

D------------------------------------6-6-6--8-8-8--11-11-11\-|

A----------------------4-4-4--6-6-6--------------------------|

E-4-4-4--6-6-6--7-7-7----------------------------------------|

G-----------------------------------------------------------|

D--------------------------------------6-68--898686---68986-|

A----------------------4-4-4-/7-7-7--7--7-------------------|

E-4-4-4--6-6-6--7-7-7---------------------------------------|

G------------------------------------------------------------|

D------------------------------------6-6-6--8-8-8--11-11-11--|

A----------------------4-4-4--6-6-6--------------------------|

E-4-4-4--6-6-6--7-7-7----------------------------------------|

G-13-13-13--13-13-13---------------------------------------------------|

D---------------------13-13-13--11-11-11--14-14-14--14-14-14--14-13-11-|

A----------------------------------------------------------------------|

E----------------------------------------------------------------------|

G------------|

D-9h11p9-----|

A--------11\-|

E------------|

G--------------------------------------------------------|

D--------------------------------------------------------|

A----------------------4-4-4--6-6-6--4-4-4---------------|

E-4-4-4--6-6-6--7-7-7-----------------------7-7-7--6-6-6-|

G--------------------------------------------------6------|

D--------------------------------------6-8--9-8-9----9-8\-|

A----------------------4-4-4-/7-7-7--7--------------------|

E-4-4-4--6-6-6--7-7-7-------------------------------------|

G------------------------------------------------------------|

D------------------------------------6-6-6--8-8-8--11-11-11--|

A----------------------4-4-4--6-6-6--------------------------|

E-4-4-4--6-6-6--7-7-7----------------------------------------|

G---------------------------------------------------------|

D---------------------------------------------------------|

A----------------------4-4-4--/7-7-7--4-5-7--4-5-7---5-4/-|

E-4-4-4--6-6-6--7-7-7-------------------------------------|

4. FUNKY MONKS

Flea plays this on a 5 string, but if you only have a 4 you can detune

your

D to A, your A to E, and your E to B.

VERSE 1:

G-------------|

D-------------|

A-------------|

E-3---3--3-3--|

B-------------|

Repeat x11

G---------------|

D---------------|

A---------------|

E-3---5h7p5-0-1-|

B---------------|

G-------------|

D-------------|

A-------------|

E-3---3--3-3--|

B-------------|

Repeat x4

G-------------|

D-------------|

A-------------|

E-3---3--0~~~-|

B-------------|

G----------------|

D----------------|

A----------------|

E-3---3--3-0-1-2-|

B----------------|

PRE-CHORUS:

G----------------------------|

D----------------------------|

A----------------------------|

E-3---3--3-3---3-3-1-1-------|

B----------------------3-2-1-|

CHORUS:

G--------------------------------------------------------|

D--------------------------------------------------------|

A-0-0-----------------------------------0-0--------------|

E-----3-3-1-1--0-0h1-1-1-1--0-0-------------3-3-1-1-0-11-|

B-------------------------------3-3-1~-------------------|

G-----------------------------------------------------------|

D-----------------------------------------------------------|

A------------3-3-2-2--0-0-----------------------------------|

E-1-1-1--0-0--------------3-3-1-1--0hx1--1-1-1--0-0---------|

B---------------------------------------------------3-3--1~-|

G----------------------------------------|

D----------------------------------------|

A-0-0-------------5-3---5/6-5p3----------|

E-----3-3-1-1--0------5---------5-3--5---|

B----------------------------------------|

VERSE 2:

G-------------|

D-------------|

A-------------|

E-3---3--3-3--|

B-------------|

Repeat x3

G---------------|

D---------------|

A---------------|

E-3---5h7p5-0-1-|

B---------------|

G-------------|

D-------------|

A-------------|

E-3---3--3-3--|

B-------------|

Repeat x3

G------------------|

D------------------|

A------------33-11-|

E-3---5h7p5--------|

B------------------|

G-------------|

D-------------|

A-------------|

E-3---3--3-3--|

B-------------|

Repeat x3

G-----------------|

D-----------------|

A-----------------|

E-3---3h5p3-3h5-2-|

B-----------------|

G-------------|

D-------------|

A-------------|

E-3---3--3-3--|

B-------------|

Repeat x2 (then Pre-Chorus, Chorus, then Interlude)

INTERLUDE:

G----------------------------------------------------------|

D-----6-5-7-----7-6------6-5-7---------------6-5-7-----7-6-|

A------------------------------5-8-7--5--------------------|

E-5/7-------5//7-----5/7-----------------5/7-------5//7----|

B----------------------------------------------------------|

G------------------------------------------------------------|

D-----6-5-7-----------------6-5-7-----7-6------6-5-7---------|

A-----------7h8p7--8-7-------------------------------5-8-7-5-|

E-5/7-------------------5/7-------5//7-----5/7---------------|

B------------------------------------------------------------|

G--------------------------------------|

D-----6-5-7-----7-6------6-5-7---------|

A------------------------------5-8-7-5-|

E-5/7-------5//7-----5/7---------------|

B--------------------------------------|

GUITAR SOLO:

G--------------------------------------------------------------|

D--------------------------------------------------------------|

A-----2--1-3-----3-2-------2--1-3--------------2--1-3-----3-2--|

E---------------------------------1-4-3-1----------------------|

B-1/3--------1//3------1/3----------------1/3--------1//3------|

G-------------------------------------------------------------|

D-------------------------------------------------------------|

A-----2--1-3--------------2--1-3-----3-2------2-1-3h5-3-1-4-3-|

E------------1-4-3-1------------------------------------------|

B-1/3-----------------1/3--------1//3-----1/3-----------------|

G----------------------------------------|

D----------------------------------------|

A-----2--1-3-----3-2------2--1-3---------|

E--------------------------------1-4-3-1-|

B-1/3--------1//3-----1/3----------------|

VERSE 3:

G-------------|

D-------------|

A-------------|

E-3---3--3-3--|

B-------------|

Repeat x3

G--------------|

D--------------|

A--------------|

E-3---3--0-1-2-|

B--------------|

G-------------|

D-------------|

A-------------|

E-3---3--3-3--|

B-------------|

Repeat x3

G-------------|

D-------------|

A-------------|

E-3---3--0~~~-|

B-------------|

G-----------------|

D-----------------|

A-----------------|

E-3---3-3-5b=-7b=-|

B-----------------|

G-------------|

D-------------|

A-------------|

E-3---3--3-3--|

B-------------|

Repeat x7

G--------------|

D--------------|

A--------------|

E-3---3--0-1-2-|

B--------------|

G-------------|

D-------------|

A-------------|

E-3---3--3-3--|

B-------------|

(then Pre-Chorus, then Chorus, then Outro)

OUTRO:

G-1h2------------4-4-2-1--2-----------4-2-1--1h2------------44-2-1-|

D-----0-2-2--4-------------2-3-4-----------------0-2-2--4----------|

A--------------2-----------------0h2----------------------2--------|

E------------------------------------------------------------------|

B------------------------------------------------------------------|

G-2-----------4-2-1-1h2---------------------4-2-1-|-2---------4-2-1-|

D--2-3-4-----------------0-2-0-3-0-4--------------|--2-3-4----------|

A--------0h2-------------------------0-2-0-2------|---------2-------|

E-------------------------------------------------|-----------------|

B-------------------------------------------------|-----------------|

G-1h2-----------44-2-1-2---------------------4-2-1-|

D-----0-2-3-4------------2h3h4-2h3h4-2h3h4---------|

A-------------2----------------------------2-------|

E--------------------------------------------------|

B--------------------------------------------------|

G-1h2-----------44-77-8-4---2-------2-1-2-1--2--------------------4-|

D-----0-2-3-4-------------3-------4-----------2h3h4-2h3h4-2h3h4-----|

A-------------2---------------0-2-------------------------------2---|

E-------------------------------------------------------------------|

B-------------------------------------------------------------------|

G-2----------4-2--1--2--2-x2--2--4---1--2---2-22--7--4----1-|

D--2-3-4----------------------------------------------------|

A--------0h2------------------------------------------------|

E-----------------------------------------------------------|

B-----------------------------------------------------------|

G-1h2-------------44-2-1--2-----------4-2-1--1h2------------44-2-1-|

D-----0-2-2--4-------------2-3-4-----------------0-2-2--4----------|

A--------------2-----------------0h2----------------------2--------|

E------------------------------------------------------------------|

B------------------------------------------------------------------|

G-2-----------4-2-1--1h2---------------------4-2-1--2---------4-2-1-|

D--2-3-4-----------------0-2-0-3-0-4-----------------2-3-4----------|

A--------0h2-------------------------0-2-0-2----------------2-------|

E-------------------------------------------------------------------|

B-------------------------------------------------------------------|

5. SUCK MY KISS (or "finally, a song in 4/4 time played in standard

without a 5 string!")

INTRO

G---------------------------------------|

D---------------------------------------|

A------1------------1------------1------|

E-1-3-----1-3--1-3-----1-3--1-3-----1-3-|

G---------------7h99-|

D------33335h777-----|

A-3h555--------------|

E--------------------|

G---------------------------------------|

D---------------------------------------|

A------1------------1------------1------|

E-1-3-----1-3--1-3-----1-3--1-3-----1-3-|

G---------------7h99-|

D------33335h777-----|

A-3h555--------------|

E--------------------|

VERSE (all verses the same):

G-------------------------------------|

D-------------------------------------|

A----------------------------1h3-1----|

E-1-3-33--1-3-3--1-3-33--1-3-------3--|

VERSE 1 BRIDGE 1:

G----------------------------|

D---3---------3--3-----4--4--|

A----------3--------4--------|

E----------------------------|

VERSE 1 BRIDGE 2:

G----------------------------|

D---3---------3--3-----4//16-|

A----------3--------4--------|

E----------------------------|

PRE-CHORUS (considerably part of the verse):

G-------------------------|

D-------------------------|

A---------------------1---|

E-1-3-33--1-3-3--1-3------|

CHORUS 1:

SS

G------------------|

D------5---5-------|

A--------5---5-----|

E-00-----------55--|

SS

G------------------|

D------5---5-------|

A--------5---5-----|

E-00-----------55--|

SS S S S S

G---------------------------|

D------5---5----------------|

A--------5---5--------------|

E-00-----------55--0-0-0—0--|

SS

G------------------|

D------5---5-------|

A--------5---5-----|

E-00-----------55--|

VERSE 2 BRIDGE 1:

G----------------------------|

D---3---------3--3-----4//16-|

A----------3--------4--------|

E----------------------------|

VERSE 2 BRIDGE 2:

G----------------------------|

D---3---------3--3-----4//16-|

A----------3--------4--------|

E----------------------------|

CHORUS 2:

G------------------|

D------5---5-------|

A--------5---5-----|

E-00-----------55--|

SS

G------------------|

D------5---5-------|

A--------5---5-----|

E-00-----------55--|

SS S S

G-------------------------|

D------5---5--------------|

A--------5---5------------|

E-00-----------55----0--0-|

SS

G----------------------|

D------5---5-----------|

A--------5---5---------|

E-00-----------55--6~~-|

For the guitar solo, play the Intro part.

VERSE 3 BRIDGE 1:

G----------------------------|

D---3---------3--3-----4//16-|

A----------3--------4--------|

E----------------------------|

VERSE 3 BRIDGE 2:

G----------------------------|

D---3---------3--3-----4//16-|

A----------3--------4--------|

E----------------------------|

CHORUS 3:

G------------------|

D------5---5-------|

A--------5---5-----|

E-00-----------55--|

SS

G------------------|

D------5---5-------|

A--------5---5-----|

E-00-----------55--|

SS S

G-------------------------|

D------5---5--------------|

A--------5---5------------|

E-00-----------55-------0-|

SS

G-------------------|

D------5---5--------|

A--------5---5------|

E-00-----------55---|

6. I COULD HAVE LIED

Guitar does intro alone.

VERSE:

G-------------------------|

D-------------------------|

A-------------------------|

E--7-7---7-7---5-5---3-3--|

BRIDGE:

G----------------------------------------|

D----------------------------------------|

A----------------------------------------|

E-7--7----10-1010--10-10---5-5----3--3---|

^ Flea matches the guitar strokes there ^

CHORUS:

G----------------------------------------|

D----------------------------------------|

A-7--7----10-1010-10-10----5-5-----3--3--|

E----------------------------------------|

^ also matches strokes there ^

SOLO 1:

G---------------------------------------|

D---------------------------------------|

A---------------------7---------3-------|

E--77-7-5h7-5h7-77--5---5-3-3-5---5-3-0-|

G---------------------------------------|

D---------------------------------------|

A---------------------7---------3-------|

E--77-7-5h7-5h7-77--5---5-3-3-5---5-3-0-|

G-------------------------------|

D-------------------------------|

A---------------------7-------5-|

E--77-7-5h7-5h7-77--5---5-3-----|

G----------------------------|

D----------------------------|

A---------------------7------|

E--77-7-5h7-5h7-77--5---5-3--|

Note live, Flea never does this - it's improvisation. But that's

the studio version.

SOLO 2:

G-----------------------------------------|

A-----------------------------------------|

E-7--7----10-1010-10-10----5-5-----3--3---|

G-----------------------------------------|

D-----------------------------------------|

A-----------------------------7-----------|

E-7--7----10-1010-10-10----5-----5-3--3---|

That's all that changes between the chorus and the 2nd solo,

that one itty bit right there.

7. MELLOWSHIP SLINKY IN BMAJOR

INTRO:

G-----------------------------------------------|

D-----------------------------------------------|

A-4---3---2--0h5--6--7----------5---7--7--5-7---|

E---------------------0--0--0-7---7-------------|

G--------------------------------------------------|

D--------------------------------------------------|

A-4---3---2--0h5--6--7----------5---7----------5---|

E---------------------0--0--0-7---7--0--0--0-7---7-|

G-----------------------------------------------|

D-----------------------------------------------|

A-4---3---2--0h5--6--7----------5---7--7--5-7---|

E---------------------0--0--0-7---7-------------|

G----------------------------------------|

D----------------------------------------|

A-4---3---2--0h5--6--7----------5---7----|

E---------------------0--0--0-7---7--0---|

VERSE:

G-8----------------|

D---9-7--------99--|

A-------9----------|

E---------77-------|

G--8----------------|

D-9--9-7--------77--|

A--------9----------|

E----------77-------|

G--8----------------|

D-7--9-7--------99--|

A--------9----------|

E----------77-------|

END OF VERSE:

G-8------------------|

D---9-7-----9--8--7--|

A-------9------------|

E--------------------|

TRANSITION BETWEEN TWO GUITAR PARTS:

G-8-------------------------------------|

D---9-7-----9--8--7------------------7--|

A-------9------------9-8-7--5-7-7--9----|

E---------------------------------------|

NOTE: this takes place of "End of verse" at one section and takes

the first part

of another version section. John sings doo's over these root

notes, and it's just

a transition between the two different verse guitar parts.

END OF VERSE (PRE-CHORUS):

G-8------------------9--|

D---9-7-----9--8--7-----|

A-------9---------------|

E-----------------------|

NOTE: This is the way Flea plays the end of the verse only directly

before the chorus.

CHORUS:

G---------------------------------------------------|

D-------------------5-----------------------5-------|

A-5-7-5-7---5-7-5-7---7---4-5-4-5---4-5-4-5---4-----|

E---------------------------------------------------|

G---------------------------------------------------|

D-------------------5-------------------------------|

A-5-7-5-7---5-7-5-7---7---4-5-4-5-4--5-4-5-4--5-4-5-|

E---------------------------------------------------|

G---------------------------------------------------|

D-------------------5-----------------------5-------|

A-5-7-5-7---5-7-5-7---7---4-5-4-5---4-5-4-5---4-----|

E---------------------------------------------------|

G---------------------------------------------------|

D-------------------5-------------------------------|

A-5-7-5-7---5-7-5-7---7---4-5-4-5-4--5-4-5-4--5-4-5-|

E---------------------------------------------------|

INTERLUDE:

G------------------|

D-------0--2--4----|

A-1/2------------2-|

E------------------|

G------------------|

D-------0--2--4----|

A-1/2------------2-|

E------------------|

G------------------|

D-------0--2--4----|

A-1/2------------2-|

E------------------|

G------------------|

D-------0--2--4----|

A-1/2------------2-|

E------------------|

G------------------|

D-5/7---5--4-------|

A-------------7--5-|

E------------------|

G------------------|

D-5/7---5--4-------|

A-------------7--5-|

E------------------|

G------------------|

D------------------|

A------------------|

E-3/5---3--2--1--0-|

G------------------|

D------------------|

A------------------|

E-3/5---3--2--1--0-|

8. THE RIGHTEOUS & THE WICKED

INTRO:

G------------------------------------|

D-------------------------------2~~~-|

A-0-22-0---0-------0-22-0---0--------|

E--------3---00-0---------3---0------|

G-------------------|

D-------------------|

A-0-22-0---0--------|

E--------3---00-0---|

Wait a few seconds before you...

Repeat x2

VERSE 1:

G------------------------------------|

D-------------------------------2~~~-|

A-0-22-0---0-------0-22-0---0--------|

E--------3---00-0---------3---0------|

G---------------------------------------|

D-------------------------------20-0----|

A-0-22-0---0-------0-22-0---0-----2-20--|

E--------3---00-0---------3---0-------3-|

G------------------------------------|

D-------------------------------2~~~-|

A-0-22-0---0-------0-22-0---0--------|

E--------3---00-0---------3---0------|

G--------------------------------------|

D-------------------------------2~~~---|

A-0-22-0---0-------0-22-0---0----------|

E--------3---00-0---------3---0--------|

CHORUS 1 &2:

G-------------------------------|

D----------------------00-0---2-|

A--2-----2-----2----2-----------|

E-----0-----0-----0-------------|

G-----------------------------|

D---------------------0-0---0-|

A--2-----2-----2---2-------4--|

E-----0-----0-----0-----------|

G-------------------------------|

D----------------------00-0---2-|

A--2-----2-----2----2-----------|

E-----0-----0-----0-------------|

G---------------------------|

D---------------------0-0-0-|

A--2-----2-----2---2--------|

E-----0-----0-----0---------|

POST-CHORUS 1:

G---------------------------------|

D---------------------------------|

A---------------------------------|

E--7---6-5-4---4h5p4-3---3-4-22-2-|

G---------------------------------|

D---------------------------------|

A---------------------------------|

E--7---78-5-4---45-4-3---3-4-22-2-|

G---------------------------------|

D---------------------------------|

A---------------------------------|

E--7---6-5-4---4h5p4-3---3-4-22-2-|

G---------------------------------|

D---------------------------------|

A---------------------------------|

E--7---78-5-4---45-4-3---3-4-22-2-|

VERSE 2:

G------------------------------------|

D-------------------------------2~~~-|

A-0-22-0---0-------0-22-0---0--------|

E--------3---00-0---------3---0------|

G---------------------------------------|

D-------------------------------------2-|

A-0-22-0---0-------0-22-0---0------023--|

E--------3---00-0---------3---0-023-----|

G------------------------------------|

D-------------------------------2~~~-|

A-0-22-0---0-------0-22-0---0--------|

E--------3---00-0---------3---0------|

G--------------------------------------|

D-------------------------------2~~~---|

A-0-22-0---0-------0-22-0---0----------|

E--------3---00-0---------3---0--------|

POST-CHORUS 2:

G---------------------------------|

D---------------------------------|

A---------------------------------|

E--7---6-5-4---4h5p4-3---3-4-22-2-|

G---------------------------------|

D---------------------------------|

A---------------------------------|

E--7---78-5-4---45-4-3---3-4-22-2-|

G-------------------------------------|

D-0-1-0-----0-1-0-----0-1-0-----------|

A-------2---------2---------2-------0-|

E-----------------------------2-1-2---|

G-------------------------------------|

D-0-1-0-----0-1-0-----0-1-0-----------|

A-------2---------2---------2-------0-|

E-----------------------------2-1-2---|

G-------------------------------------|

D-0-1-0-----0-1-0-----0-1-0-----------|

A-------2---------2---------2-------0-|

E-----------------------------2-1-2---|

G-------------------------------------|

D-0-1-0-----0-1-0-----0-1-0-----------|

A-------2---------2---------2-------0-|

E-----------------------------2-1-2---|

G-------------------------------------|

D-2-3-2-----2-3-2-----2-3-2-----------|

A-------4---------4---------4-------2-|

E-----------------------------4-3-4---|

G-------------------------------------|

D-2-3-2-----2-3-2-----2-3-2-----------|

A-------4---------4---------4-------2-|

E-----------------------------4-3-4---|

G-------------------------------------|

D-0-1-0-----0-1-0-----0-1-0-----------|

A-------2---------2---------2-------0-|

E-----------------------------2-1-2---|

G-------------------------------------------------|

D-0-1-0-----0-1-0-----0-1-0-----------------------|

A-------2---------2---------2---------------------|

E-----------------------------2-----0~~~~~~~~//19-|

VERSE 3:

G------------------------------------|

D-------------------------------2~~~-|

A-0-22-0---0-------0-22-0---0--------|

E--------3---00-0---------3---0------|

G---------------------------------------|

D-------------------------------20-0----|

A-0-22-0---0-------0-22-0---0-----3-20~-|

E--------3---00-0---------3---0---------|

G------------------------------------|

D-------------------------------2~~~-|

A-0-22-0---0-------0-22-0---0--------|

E--------3---00-0---------3---0------|

G--------------------------------------|

D-------------------------------2~~~---|

A-0-22-0---0-------0-22-0---0----------|

E--------3---00-0---------3---0--------|

CHORUS 3:

G-------------------------------|

D----------------------00-0---2-|

A--2-----2-----2----2-----------|

E-----0-----0-----0-------------|

G-----------------------------|

D---------------------0-0---0-|

A--2-----2-----2---2-------4--|

E-----0-----0-----0-----------|

G-------------------------------|

D----------------------00-0---2-|

A--2-----2-----2----2-----------|

E-----0-----0-----0-------------|

G--------------------------------------------------------|

D---------------------0-0-0-0-0-0-0-0-0-0-0-0-0-0-0-0-0--|

A--2-----2-----2---2-------------------------------------|

E-----0-----0-----0--------------------------------------|

G------|

D------|

A------|

E-0~~~-

9. GIVE IT AWAY

END OF INTRO:

G---------------|

D---------------|

A---------------|

E-5/17---3/15---|

VERSE PART 1:

G-------------12---------|

D-----0h12/14------------|

A-0---------------3--0-3-|

E------------------------|

VERSE PART 2 (no real pattern behind which #2 variation he uses):

G-------------12~--------|

D-----0h12/14------------|

A-0----------------XX-1--|

E------------------------|

G-------------12~--------|

D-----0h12/14------------|

A-0----------------XX-3--|

E------------------------|

G-------------12~--------|

D-----0h12/14------------|

A-0----------------33-2--|

E------------------------|

NOTE: the "XX" is two mutes, fingerstyle with the muting on the

third fret.

On the studio version Flea sticks to this "Part 1" "Part 2" pattern

without

doing any fills except before the second chorus, in which he

does Part 1 twice.

Live he rarely sticks to Part 2, and does many fills in it. He does

2 kinds of

fills in the outro for part 2. Keep going to see them. lol

GUITAR SOLO PART:

G------------------------------|

D------------------------------|

A--------------10--------------|

E-0----0h10/12----------3--0-3-|

GUITAR SOLO ENDING:

G-----------------------------------|

D-----------------------------------|

A-----------------------------------|

E-0--10p0-9p0-7p0-5p0-4p0-3p0-2-----|p0—

Flea ends both guitar solos with the guitar solo ending.

OUTRO FILLS FOR "VERSE PART 2":

G-------------12~----12--14--12-|

D-----0h12/14------14--14--14---|

A-0-----------------------------|

E-------------------------------|

G-------------12~---------------|

D-----0h12/14------12p0-11p0-10-|

A-0-----------------------------|

E-------------------------------|

G-------------12~---------------|

D-----0h12/14-------------------|

A-0----------------------3------|

E------------------0-3-5---5-3~-|

10. BLOOD SUGAR SEX MAGIK

Drum beat starts.

VERSE:

G-9-12-14/16-12/14-7/9-|

D-7-10-12/14-10/12-5/7-|

A----------------------|

E----------------------|

G-9-11-12/14-11/12-6/7-|

D-7-9--10/12--9/10-4/5-|

A----------------------|

E----------------------|

CHORUS:

G----------------------|

D----------------------|

A-------7--5-7---------|

E-0-000--------765-3---|

G-------------------------|

D-------------------------|

A-------7--5-7----0---4-5-|

E-0-000--0------3---0-----|

POST-CHORUS:

G--------------------------|

D--------------------------|

A--------------------------|

E--1--1--1--1--1--1--1--1--|

G-----------------|

D-----------------|

A-----------------|

E--3--3--3--3--3--|

INTERLUDE:

G-----------------------------------------------------------------|

D-5-------------------7----------------7-------5------------------|

A-3--3---3------3-4---5---5----5h7-5-5---5h7---3--3---3-3-4-2-3-4-|

E------3---3--5--------------5----------------------3-------------|

G---------------------------------------------------------------|

D-7-----------------7-------5-----------------7-------------8---|

A-5-5-5-7-0-5h7-5-5---5-4---3-3---3-3---3-4---5-5-5-5-5-5-6-6-6-|

E-------------------------------3-----3-------------------------|

11. UNDER THE BRIDGE

POST INTRO, PRE-VERSE:

(after "Lonely as I am, together we cry")

G--------------------|

D-2------------------|

A--------------------|

E-0~~~~~-------------|

He does this doublestop very lightly, the guitar still does

the main holding of the note.

CHORUS 1

G--------------------------------|-------------------------------|

D--11------9--------9------------|-11------9------9--------------|

A--9---7-7---7-------7-9---99----|-9---7-7---7------7-9--7/9-7/9-|

E--------------7-5---------------|-------------7-5---------------|

G--------------------------------|---------------------------|

D--11------9--------9------------|-11------9------9----------|

A--9---7-7---7-------7-9---99----|-9---7-7---7------7-9~~~~--|

E--------------7-5---------------|-------------7-5-----------|

VERSE:

G-----------------------------|

D-----------------------------|

A-----------------------4-----|

E-0---7---4-5---0---7------55-|

CHORUS 2

G-----------------------------------|----------------------------|

D--11------9-------9----------------|-11------9------9-----------|

A--9---7-7---7-------7-9---9b9-7-9--|-9---7-7---7------7-9b--22--|

E--------------7-5------------------|-------------7-5------------|

NOTE: 9b9 means you play the bent 9 first, then unbend it back

to the normal 9.9b

means you play 9 slightly bent (no bending heard). It is not a

full on G at the

10th fret, so it is not bent a full note. Even in the 9b of 9b9, Flea

doesn't bend

a full halfstep. This is why it is hard to get Flea's exact bassline...

lol

G--------------------------------|-----------------------------|

D--11------9-------9-------------|-11------9-------9-----------|

A--9---7-7---7-------7-9---99----|-9---7-7---7-------7-9~~9~9~-|

E--------------7-5---------------|-------------7-5-------------|

BRIDGE

G---------------------7-----------5------|

D-7-0-7--10---7-5-7-5---5-3---5-7----7-5-|

A----------------------------------------|

E----------------------------------------|

G---9---9-------7----------7---------|

D-7---7---7---5----5-3---5---5h7-5h7-|

A------------------------------------|

E------------------------------------|

G---9-----------------7-----------5------|

D-7---7--10---7-5-7-5---5-3---5-7----7-5-|

A----------------------------------------|

E----------------------------------------|

G------------------------------------------|

D------------------------------------------|

A---------------------0~~~~~~~~--3~~~~~~~~-|

E-1~~~~~~~~~~~~~~~~~-----------------------|

UNDER THE BRIDGE DOWNTOWN

G---------------------7-----------5------|

D-7-0-7--10---7-5-7-5---5-3---5-7----7-5-|

A----------------------------------------|

E----------------------------------------|

Is where I drew some blood

G---9---9-------7----------7---------|

D-7---7---7---5----5-3---5---5h7-5h7-|

A------------------------------------|

E------------------------------------|

And I could not get enough

G---------------------7-----------5------|

D-7------10---7-5-7-5---5-3---5-7----7-5-|

A----------------------------------------|

E----------------------------------------|

Forgot about my love

G---9---9-------7----------7-----------|

D-7---7---7---5----5-3---5---5h7-5h7---|

A--------------------------------------|

E--------------------------------------|

And I gave my life away

G---------------------7-----------5------|

D-7------10---7-5-7-5---5-3---5-7----7-5-|

A----------------------------------------|

E----------------------------------------|

G---9---9-------7----------7---------|

D-7---7---7---5----5-3---5---5h7-5h7-|

A------------------------------------|

E------------------------------------|

G---------------------7-----------5------|

D-7------10---7-5-7-5---5-3---5-7----7-5-|

A----------------------------------------|

E----------------------------------------|

G---------------------7-----------5------|

D-7------10---7-5-7-5---5-3---5-7----7-5-|

A----------------------------------------|

E----------------------------------------|

OUTRO

G---------------------7-----------5------|

D-7-0-7--10---7-5-7-5---5-3---5-7----7-5-|

A----------------------------------------|

E----------------------------------------|

G---9---9-------7--------------7-------|

D-7---7---7---5----5-3---5-7-----7-5-0-|

A--------------------------------------|

E--------------------------------------|

G---9-----------------7-----------5------|

D-7---7--10---7-5-7-5---5-3---5-7----7-5-|

A----------------------------------------|

E----------------------------------------|

G---9---9-------7----------------------|

D-7---7---7---5----5-3---7~~~~---------|

A--------------------------------------|

E--------------------------------------|

NOTE: the first note in "Naked the Rain" can be considered part

of "Under the Bridge".

In the Greatest Hits/remastered version, the note is played

in Under the Bridge. Live,

they sometimes include that final note (not always though).

Which is why album tabs help.

12. NAKED IN THE RAIN

INTRO:

G-14~~~~----- or it can be played G-------------|

D------------ D-(7)~~~~-----|

A------------ A-------------|

E------------ E-------------|

VERSE PART A

S P S S PP

G---------------------|

D-----5---------55----|

A---------------------|

E—1/3----0—1/3-----0--|

That's how it's played in the studio/BSSM version. However,

the one time they

played it live (I have that boot lol) and on the Chad Smith DVD,

Flea plays it

like this:

S P S S PP

G---------------------|

D-----7---------77----|

A---------------------|

E—3/5----0—3/5-----0--|

VERSE PART B

S P S S PP

G-----7---------77----|

D---------------------|

A-3/5----0-3/5-----0--|

E—--------—-----------|

Live (in the one time they did it live) and Chad Smith DVD:

S P S S PP

G---------------------|

D-----9---------99----|

A---------------------|

E—5/7----0—5/7-----0--|

CHORUS:

G---------------------|

D---------------------|

A-------3~~~----------|

E—3~~~----------------|

S P S S PP x2

G---------------------|

D-----5---------55----|

A---------------------|

E—1/3----0—1/3-----0--|

G--------------------|

D----------------3-5-|

A----22-3~~~-3-5—----|

E—3~~----------------|

CHORUS 2

G---------------------|

D---------------------|

A-------3~~~----------|

E—3~~~----------------|

S P S S PP x2

G---------------------|

D-----5---------55----|

A---------------------|

E—1/3----0—1/3-----0--|

G---------------------|

D---------------------|

A----22-3~~~-3~~-5~~--|

E—3~~-----------------|

BASS SOLO

S S

G-------------------------------|

D-------------------------------|

A--------1-1---1-3---4--4h5-----|

E--3-5--------------------------|

S S

G-------------------------------|

D--------------------3--3h5-----|

A---------0-1---1-3-------------|

E--3-5----------------------3---|

S S

G-------------------------|

D----------3--0530--------|

A------------------3-4--0-|

E--3-5--------------------|

S S

G-------101210—1012---|

D-------------12------|

A---------------------|

E--3-5----------------|

G-12h14--14--12h14--14--12h14--14--12h14-14--10h12---|

D----------------------------------------------------|

A----------------------------------------------------|

E----------------------------------------------------|

G-12--9h10--8h9-9--7h8-8---7-7--5--0---5----|

D-------------------------------------------|

A-------------------------------------------|

E-------------------------------------------|

S S P P S S P

G----------------------3---|

D--------5-3-------3-5--5--|

A------------5--6----------|

E--5--5--------------------|

G----6--6\10---10----10\19--19---17p15------|

D---------------------------------------15--|

A-------------------------------------------|

E-------------------------------------------|

13. APACHE ROSE PEACOCK

VERSE:

G---------------|

D---------------|

A------------2--|

E-0---0---3-----|

G----------------|

D----------------|

A----------------|

E-0---0---5--3---|

G---------------|

D---------------|

A------------2--|

E-0---0---3-----|

G-----------------|

D-----------------|

A-----------------|

E-0---0--5-5--5-3-|

CHORUS 1(? Lol, not really a verse-chorus type song):

G-----7---------------------|

D----------3—---------------|

A-5------3----0--0—2--0h3-4-|

E---------------------------|

G-----7----------------5-----|

D----------3—------5/7---7-5-|

A-5------3----0--0—----------|

E----------------------------|

G-----7------------------------|

D----------3—-------------3----|

A-5------3----0--0—0--3-3--3h4-|

E------------------------------|

G-----7---------------------|

D----------3—---------------|

A-5------3----0--0—--5------|

E-----------------------0h4-|

BRIDGE (?):

G---------------------------------------|

D------------4-------------4--5--4------|

A----4---7-----5h7------4-----------5h7-|

E-5-----------------5-------------------|

G----------------------------------------|

D------------4--------------4--5--4------|

A----4---7------5h7------4-----------5h7-|

E-5------------------5-------------------|

CHORUS 2 (? Yeah just go with it. Lol):

G-----7---------------------|

D----------3—---------------|

A-5------3----0--0—2--0h3-4-|

E---------------------------|

G-----7-------------------------------|

D----------3—---------7p0-6p0-5p0-3p0-|

A-5------3----0--0—0------------------|

E-------------------------------------|

G-----7----------------------------|

D----------3—--------------3-------|

A-5------3----0--0—0-3-4-5---5-0-4-|

E----------------------------------|

G-----7--------------------12-------|

D----------3—--------12/14---14-12--|

A-5------3----0--0—0----------------|

E-----------------------------------|

DOOT DOOT (really, not a very structured song):

G--------------------------------------------------------------|

D--------------------------------------------------------------|

A-7-7---------5-5---------------5----------5------5----------5-|

E-------8-8---------5-5--5--7-7----7-7-7-7----7-7----7-7-7-7---|

G--------------------------------------------------------------|

D--------------------------------------------------------------|

A-7-7---------5-5---------------5----------5------5----------5-|

E-------8-8---------5-5--5--7-7----7-7-7-7----7-7----7-7-7-7---|

14. THE GREETING SONG

INTRO:

G-----------------------------|

D-----------------------------|

A-0---0-0-3333-0—3--0--3-0000-|

E-----------------------------|

VERSE:

G-----------------------------|

D-----------------------------|

A-0---0-0-3333-0—3--0--3-3333-|

E-----------------------------|

G-----------------------------|

D-----------------------------|

A-0---0-0-3333-0—3--0--3-0000-|

E-----------------------------|

UNCOMMON VARIATION OF VERSE:

G-----------------------------|

D-----------------------------|

A-0-X-0-0-3333-0—3--0--3-3333-|

E-----------------------------|

G-----------------------------|

D-----------------------------|

A-0-X-0-0-3333-0—3--0--3-0000-|

E-----------------------------|

In that, Flea mutes while Chad hits the snare the first time.

Feel free to mess with it.

BRIDGE 1:

G----------------------|

D----0-2-3-4----0-2-34-|

A-2----------2---------|

E----------------------|

G----------------------|

D----0-2-3-4----0-2-34-|

A-2----------2---------|

E----------------------|

ALL OTHER BRIDGES:

G----------------------|

D----0-2-3-4----0-2-34-|

A-2----------2---------|

E----------------------|

G---------------------------|

D----0-2-3-4--0-2222-0-2222-|

A-2-------------------------|

E---------------------------|

Once again, a simple variation can be done by doing a hit mute on the

A when Chad hits the snare after the first B.

CHORUS:

G--------------------------------------|

D-4--2h4p0--4--2h4p0—2--0h2p0--2-2-2-0-|

A--------------------------------------|

E--------------------------------------|

G-------------------------------------|

D-4--2h4p0--4--2h4p0—2---2--2-2-2-0---|

A-------------------------------------|

E-------------------------------------|

G--------------------------------------|

D-4--2h4p0--4--2h4p0—2--0h2p0--2-2-2-0-|

A--------------------------------------|

E--------------------------------------|

G--------------------------------|

D-4--2h4p0--4--4—-4---2--2-2-2-0-|

A--------------------------------|

E--------------------------------|

"GUITAR SOLO"/INSTRUMENTAL DITTY:

G------------------10-10h12-10-------|

D------7-7--10-10--------------12-10-|

A-8-8--------------------------------|

E------------------------------------|

G--------------------------|

D--------------------------|

A-12-12--10-10--9-9--8--77-|

E--------------------------|

G------------------10-10h12-10-------|

D------7-7--10-10--------------12-10-|

A-8-8--------------------------------|

E------------------------------------|

G--------------------------|

D--------------------------|

A-12-12--10-10--9-9--8--77-|

E--------------------------|

G------------------10-10h12-10-------|

D------7-7--10-10--------------12-10-|

A-8-8--------------------------------|

E------------------------------------|

G--------------------------|

D--------------------------|

A-12-12--10-10--9-9--8--77-|

E--------------------------|

G------------------10-10h12-10-------|

D------7-7--10-10--------------12-10-|

A-8-8--------------------------------|

E------------------------------------|

G--------------------------|

D--------------------------|

A-12-12--10-10--9-9--8--77-|

E--------------------------|

Note: below is 3 11's, not 6 1's.

G-------------------------------|

D-------------------------------|

A-------------------------------|

E-111111--101010--999-888--7--6-|

G-------------------------------|

D-------------------------------|

A-------------------------------|

E-111111--101010--999-888--7--6-|

G-------------------------------|

D-------------------------------|

A-------------------------------|

E-111111--101010--999-888--7--6-|

G----------------------------------|

D----------------------------------|

A----------------------------------|

E-121212--111111--101010-999--8--7-|

LAST CHORUS:

G--------------------------------------|

D-4--2h4p0--4--2h4p0—2--0h2p0--2-2-2-0-|

A--------------------------------------|

E--------------------------------------|

G-------------------------------------|

D-4--2h4p0--4--2h4p0—2---2--2-2-2-0---|

A-------------------------------------|

E-------------------------------------|

G--------------------------------------|

D-4--2h4p0--4--2h4p0—2--0h2p0--2-2-2-0-|

A--------------------------------------|

E--------------------------------------|

G-------------------------------------|

D-4--2h4p0--4--2h4p0—2---2--2-2-2-0---|

A-------------------------------------|

E-------------------------------------|

G-4--2h4p0--4--2h4p0—2--0h2p0--2-2-2-0--|

D---------------------------------------|

A---------------------------------------|

E---------------------------------------|

G-4--2h4p0--4--4—-4---2--2-2-2-0-|

D--------------------------------|

A--------------------------------|

E--------------------------------|

G--------------------------------------|

D-4--2h4p0--4--2h4p0—2--0h2p0--2-2-2-0-|

A--------------------------------------|

E--------------------------------------|

G-------------------------------------|

D-4--2h4p0--4--2h4p0—2---2--2-2-2-0---|

A-------------------------------------|

E-------------------------------------|

15. MY LOVELY MAN

VERSE:

G--------------------7--9-7------------------------------------|

D-------------7-5-/9--------9-7--------------------------------|

A-7-5-7-5-7-5--------------------7-5-7-5-7-5--------5--7-5-----|

E--------------------------------------------5-3-/7--------7-5-|

CHORUS:

G-------------------------------------------------------------------------|

D-------------------------------------------------------------------5-----|

A-0---0-0---0--2-2-2-2-0-2----/5h7-7-7--5h7-7-7--7-7--/5h7-7-7--5h7---7-5-|

E---3-----3---------------------------------------------------------------|

FINAL BASS SOLO (just goes at the end of the "chorus" at the end):

G------------12-----(12)h14~12-------------|

D--14----12-----14----------------12-------|

A-----14-----------------------14----14-12-|

E------------------------------------------|

16. SIR PSYCHO SEXY

INTRO:

G----------------------------------------------------------|

D----------------------------------------------------------|

A-7-------4-5---5-7------4--5-4---7------4-5--5-7---5--7-5-|

E--0-6-7-------0-0-0-6-7-----------0-6-7-----0-0-0---------|

VERSE FIGURE 1:

G--------------------------------------------------------------|

D--------------------------------------------------------------|

A-7-------4-5---5-7------4--5-4---7------4-5--5-7------5-5-5-5-|

E--0-6-7-------0-0-0-6-7-----------0-6-7-----0-0--0-6-7--------|

VERSE FIGURE 2: (with envelope filter)

G----------------------------------------------------------|

D----------------------------------------------------------|

A-7-------4-5---5-7------4--5-4---7------4-5--5-7---5--7-5-|

E--0-6-7-------0-0-0-6-7-----------0-6-7-----0-0-0---------|

G---------------------------------------------------------------|

D---------------------------------------------------------------|

A-7-------4-5---5-7------4--5-4---7------4-5--5--7------5-5-5-5-|

E--0-6-7-------0-0-0-6-7-----------0-6-7-----0-0--0-6-7---------|

VERSE 2:

G----------------------------------------------------------|

D----------------------------------------------------------|

A-7-------4-5---5-7------4--5-4---7------4-5--5-7---5--7-5-|

E--0-6-7-------0-0-0-6-7-----------0-6-7-----0-0-0---------|

G------------------------------------------------------6-7--------|

D----------------------------------------------------5------------|

A-7-------4-5---5-7------4--5-4---7------4-5--5---7-7-----0-4-5-5-|

E--0-6-7-------0-0-0-6-7-----------0-6-7-----0-0------------------|

G----------------------------------------------------------|

D----------------------------------------------------------|

A-7-------4-5---5-7------4--5-4---7------4-5--5-7---5--7-5-|

E--0-6-7-------0-0-0-6-7-----------0-6-7-----0-0-0---------|

CHORUS:

G--------------------|

D----5-3-5--5-3-5----|

A--------------------|

E-3------------------|

G-------------------|

D----5-----5--------|

A-------------------|

E--3--3--3---3-3--3-|

G--------------------|

D----5-3-5--5-3-5----|

A--------------------|

E-3------------------|

G-------------------|

D----5-----5--------|

A-------------------|

E--3--3--3---3-3--3-|

G--------------------|

D----5-3-5--5-3-5----|

A--------------------|

E-3------------------|

G-------------------|

D----5-----5--------|

A-------------------|

E--3--3--3---3-3--3-|

G---------------------|

D----5-3-5--5-3-5-----|

A---------------------|

E-3----------------6--|

VERSE 3: (with envelope filter)

G----------------------------------------------------------7---|

D--------------------------------------------------------------|

A-7-------4-5---5-7------4--5-4---7------4-5--5-7------5-5---5-|

E--0-6-7-------0-0-0-6-7-----------0-6-7-----0-0-0-6-7---------|

G----------------------------------------------------------------|

D----------------------------------------------------------------|

A-7-------4-5---5-7------4--5-4---7------4-5--5-7---5--7-5-------|

E--0-6-7-------0-0-0-6-7-----------0-6-7-----0-0-0---------------|

G----------------------------------------------------------------|

D----------------------------------------------------------------|

A-7-------4-5---5-7------4--5-4---7------4-5--5--7------5-5-5-5--|

E--0-6-7-------0-0-0-6-7-----------0-6-7-----0-0--0-6-7----------|

G------------------------------|

D------------------------------|

A-7-------4-5---5---7--------5-|

E--0-6-7-------0-0---0--6-7----|

INTERLUDE:

G----------------------|

D----------------------|

A----------------------|

E-5-0-0-0-3-0-0-0-3--0-|

G--------------------------|

D--------------------------|

A-----------------0-2------|

E-0-0-0-3-0-0-0-5-----5--3-|

G--------------------|

D--------------------|

A--------------------|

E-0-0-0-3-0-0-0-3--0-|

G--------------------------|

D--------------------------|

A-----------------0-2------|

E-0-0-0-3-0-0-0-5-----5--3-|

G--------------------|

D--------------------|

A--------------------|

E-0-0-0-3-0-0-0-3--0-|

G--------------------------|

D--------------------------|

A-----------------0-2------|

E-0-0-0-3-0-0-0-5-----5--3-|

G--------------------|

D--------------------|

A--------------------|

E-0-0-0-3-0-0-0-3--0-|

G------------------------------|

D------------------------------|

A---------------------3---5----|

E-0-0-0-3-0-0-0-5-0-2--------0-|

VERSE 4 (with envelope):

G----------------------------------------------------------|

D----------------------------------------------------------|

A-7-------4-5---5-7------4--5-4---7------4-5--5-7---5--7-5-|

E--0-6-7-------0-0-0-6-7-----------0-6-7-----0-0-0---------|

Get this song at:  amazon.com sheetmusicplus.com

Share your thoughts

0 Comments found