Red Hot Chili Peppers

Red Hot Chili Peppers - Venice Queen guitar tab

---------------------------------------------------------------------

VENICE QUEEN - Red Hot Chili Peppers

---------------------------------------------------------------------

Artist: Red Hot Chili Peppers

Album: By The Way

Song: Venice Queen

This is intro and most of the verse, except the little bridge part

that I haven't come up with yet.

e|-------------------------------------------------------------------|

B|--------5--------5--------5----------------------------------------|

G|-----4-----4--------4--------4-------5--4--------------------------|

D|--7-----------7--------7--------7----------------------------------|

A|-------------------------------------------------------------------|

E|-------------------------------------------------------------------|

e|-------------------------------------------------------------------|

B|--------5--------5--------5----------------------------------------|

G|-----4-----4--------4--------4-------5--4--------------------------|

D|--7-----------7--------7--------7----------------------------------|

A|-------------------------------------------------------------------|

E|-------------------------------------------------------------------|

e|-------------------------------------------------------------------|

B|--------5--------5--------5----------------------------------------|

G|-----4-----4--------4--------4-------5--4--------------------------|

D|--7-----------7--------7--------7----------------------------------|

A|-------------------------------------------------------------------|

E|-------------------------------------------------------------------|

e|-------------------------------------------------------------------|

B|--------5--------5--------5--------5--------5----------------------|

G|-----4-----4--------4--------4--------4--------4-------------------|

D|--7-----------7--------7--------7--------7--------7----------------|

A|-------------------------------------------------------------------|

E|-------------------------------------------------------------------|

This is the last part of the song. From the begining of the

"G L O R I A..." verse till the end of the song. It is really just

chords played on acustic guitar but with Frusciantes style of

struming. It is not hard but you'll have to get it right if you want

it to sound good.

A G F G

e|--0-----------3------------1------------3--------------------------|

B|--2-----------3------------1------------3--------------------------|

G|--2-----------4------------2------------4--------------------------|

D|--2-----------5------------3------------5--------------------------|

A|--0-----------5------------3------------5--------------------------|

E|--0-----------3------------1------------3--------------------------|

That's all i have for now but i'll send the rest when i get it

right...

Tabed by: Mislav Stublic

e-mail: Mislav.Stublic@public.srce.hr

Get this song at:  amazon.com sheetmusicplus.com

Share your thoughts

0 Comments found