Red Hot Chili Peppers

Red Hot Chili Peppers - Warm Tape Bass guitar tab

Song: Warm tape

Artist: Red Hot Chili Peppers

Album: By the way

Bassist: Flea

Tabbed by Marcos Prieto (webmaster at tabs-database.com.com)

Notation legend:

\\ | /

3 -> triplet, 3 notes in 2 beats.

x -> mute.

\\ -> slide up. \\ It can be after or before the note, like 1h3,

/ -> slide down. | but if there's no enought space it can be

h -> hammer on. | over or down, like G|-13-...

p -> pull off. / D|--h-...

~ -> let ring.

r -> rest.

S -> slap.

P -> pop.

+ + -> the rhythm of the song, generally 4x4. If there are 2 digits notes

or there's no enough space, I lengthen it,

from (+ + ...) to (+ · + · ...)

|·------·| -> repeat this a number of times, for example |·3-3-3-3·| x4

repeats 3-3-3-3 four times.

Intro & Verse (x12):

B D# C# E

+ + + + + + + +

G||----8-----8-----|----10----9-----||

D|·----------------|----------------·|

A|·--------6-----6-|--------7-----7-·|

E||7-----7---------|9-----9---------||

Chorus 1:

G#m B E G#m B E

+ + + + + + + + + + + + + + + +

G|----------------|4---4-----------|------8---8-6---|4-6-4-----------|

D|6---6-6---6-6-6\\|--------2---2---|6---6-----------|--------2---2---|

A|----------------|----------------|----------------|----------------|

E|----------------|----------------|----------------|----------------|

G#m B E F# E

+ + + + + + + + + + + + + + + +

G|----------------|4---------------|----------------|----------------|

D|6---6-6---6-6-6-|----4---2-------|4---4-4-----4-4-|4---4---2---2---|

A|----------------|----------------|----------4-----|--4---4---------|

E|----------------|----------------|----------------|----------------|

G#m B E G#m B E

+ + + + + + + + + + + + + + + +

G|----------------|4---4-----------|------8---8-6---|4-6-4-----------|

D|6---6-6---6-6-6-|--------2---2---|6---6-----------|------4-2---2---|

A|----------------|----------------|----------------|----------------|

E|----------------|----------------|----------------|----------------|

G#m B E F# E

+ + + + + + + + + + + + + + + +

G|----------------|4---4-----------|----------------|----------------|

D|6---6-6---6-6-6-|--------2---2---|4-----4-----4---|4---4---2---2---|

A|----------------|----------------|----------4-----|--4---4---------|

E|----------------|----------------|----------------|----------------|

Verse (x10).

Chorus 2:

G#m B E G#m B E

+ + + + + + + + + + + + + + + +

G|----------------|4---4-----------|------8---118-6-|4---------------|

D|6---6-6---6-6-6-|--------2---2---|6---6-----------|----4---2---2---|

A|----------------|----------------|----------------|----------------|

E|----------------|----------------|----------------|----------------|

G#m B E F# E

+ + + + + + + + + + + + + + + +

G|----------------|4---4-----------|----------11----|11--11----------|

D|6---6-6---6-6-6-|--------2---2---|4-----4---------|--------2---2---|

A|----------------|----------------|------------9---|--9-------------|

E|----------------|----------------|----------------|----------------|

G#m B E G#m B E

+ + + + + + + + + + + + + + + +

G|----------------|4---4-----------|------8---8-6---|4-6-4-----------|

D|6---6-6---6-6---|--------2---2---|6---6-----------|--------2---2---|

A|----------------|----------------|----------------|----------------|

E|----------------|----------------|----------------|----------------|

G#m B E F# E

+ + + + + + + + + + + + + + + +

G|----------------|--4-6-4---------|----------------|----------------|

D|6---6-----------|4-------2---2---|4-----4-----4---|4---4---2---2---|

A|------6---6---6-|----------------|----------4-----|--4-------------|

E|----------------|----------------|----------------|----------------|

Bridge:

C#m E B E B

+ + + + + + + + + + + + + + + +

G|----------------|----------------|----------------|----------------|

D|----------------|----------------|--6-9-----------|6---------------|

A|----------------|----------------|7---------------|--9-6-----------|

E|9-9-9-9-9-9-9-9-|9-9-9-9-9-9-9-9-|------7---7-7-7-|------7---7-7-7-|

C#m E B E B

+ + + + + + + + + + + + + + + +

G|----------------|----------------|----------------|----------------|

D|----------------|----------------|--6-9-----------|6---------------|

A|----------------|----------------|7---------------|--9-6-----------|

E|9-9-9-9-9-9-9-9-|9-9-9-9-9-9-9-7-|------7---7-7-7-|------7---7-7-7-|

C#m E B E B

+ + + + + + + + + + + + + + + +

G|----------------|----------------|----------------|13119-----------|

D|----------------|----------------|--6-9-----------|------9---9-9-9-|

A|----------------|----------------|7---------------|----------------|

E|9-9-9-9-9-9-9-9-|9-9-9-9-9-9-9-7-|------7---7-7/9-|----------------|

C#m E B E B

+ + + + + + + + + + + + + + + +

G|----------------|----------------|----------------|13119-----------|

D|----------------|----------------|--6-9-----------|------9---9-9-9-|

A|----------------|----------------|7---------------|----------------|

E|9-9-9-9-9-9-9-9-|9-9-9-9-9-9-9-7-|------7---7-7/9-|----------------|

C#m E B

+ + + + + + + + + + + +

G|13119-----------|13119-----------|13119-----------|

D|------9---9-9-9-|------9---9-9-9-|------9---9-9-r-|

A|----------------|----------------|----------------|

E|----------------|----------------|----------------|

Verse (x10).

Ending:

(4.02):

B D# C# E B

+ + + + + + + + + + + + + + + +

G|----8-----8-----|----10----16----|----------------|----------------|

D|----------------|----------------|----------------|----------------|

A|--------6-----6-|----------------|----------------|----------------|

E|7-----7---------|9-----9-12----12|7~--------------|----------------|

__ _ __ __ _____ _____ _____

/ | / | / | / `\\ / ___/ / __ / ( __/

/ |/ | / /|| / /) / // / / // \\ \\

/ /| /|| / /^|| / /|| //___ / / // ___) )

/ / | / || / / || / / || / / / ^^/ / /

^^^^^^^^^^^^^^^^^^^^^^^^^^^^^^^^^^^^^^^^^^^^^^^^^Added by tabs-database.com and our distinguished partners

Get this song at:  amazon.com sheetmusicplus.com

Share your thoughts

0 Comments found