Red Hot Chili Peppers

Red Hot Chili Peppers - Song: Savior bass tab

Song: Savior

Album: Californication

Tuning: E,A,D,G

this is a cool song. its really long tho cuz of all the improv. flea duz.

Intro:

G:--------------------|----------------------|

D:--------------------|----------------------|

A:-5--5-5-5-55-5-5-00-|-3--3-3-3-3-----------|

E:--------------------|------------3--3-3333-|

G:------------------|------------------|

D:------------------|------------------|

A:-5--5-5-5-55-5-00-|-3--3-3--5--------|

E:------------------|----------3--3-33-|

Verse 1:

G:-------------|---------------------|

D:----2-2------|---------------------|

A:-5------5-00-|-3--3-3-33-----------|

E:-------------|-----------3--3-3333-|

G:---------------|------------------|

D:---------------|------------------|

A:-5---5--5-5-00-|-3--3-3-----------|

E:---------------|--------3-3-33-33-|

G:-------------|---------------------|

D:----2-2------|---------------------|

A:-5------5-00-|-3--3-3-33-----------|

E:-------------|-----------3--3-3333-|

G:---------------|---------------------|

D:----2-3-2------|---------------------|

A:-5--------5-00-|-3--3-3-33-----------|

E:---------------|-----------3--3-3-3--|

Bridge 1:

G:--------13-----11---9---|-------------------|

D:------------------------|---9---------------|

A:------------------------|-------------------|

E:-0--0-0----0-0----0---0-|-0---0-0-00-0-0-00-|

G:--------11--------13---|-9------------------|

D:-----------------------|--------------------|

A:-----------------------|--------------------|

E:-0--0-0----00-0-0----0-|-0-00-0-0-00-0-00-0-|

Verse 2:

G:-----------------|-------------------|

D:-----------------|-------------------|

A:-5--5-5-5--5-5-0-|-3--3-3------------|

E:-----------------|---------3--33-3-3-|

G:-------------|----------------------|

D:----2-2------|----------------------|

A:-5------5--0-|-3--3-3-5----------33-|

E:-------------|-----------3--3-35----|

G:---------------|---------------------|

D:----2-3-2------|---------------------|

A:-5--------5--0-|-3--3-3--------------|

E:---------------|---------3--3-3-3--3-|

G:-----------------|-------------------|

D:-----------------|-------------------|

A:-5--5-5-5--5-5-0-|-3--3-3------------|

E:-----------------|---------3--33-0-0-|

Bridge 2:

G:--------13-----11---9---|-------------------|

D:------------------------|---9---------------|

A:------------------------|-------------------|

E:-0--0-0----0-0----0---0-|-0---0-0-00-0-0-00-|

G:--------11--------13---|-9-~~~---------------|

D:-----------------------|---------------------|

A:-----------------------|---------------------|

E:-0--0-0----00-0-0----0-|-0-~~~---------------|

Chorus 1:

G:------19-------19-------|--19-------19----19-|

D:------------------------|--------------------|

A:-17------17-15----15----|--------------------|

E:---------------------15-|-----15-15----15----|

G:------19-------19-------|--19----19---------|

D:------------------------|-------------------|

A:-17------17-15----15----|-------------------|

E:---------------------15-|-----15-----18--18-|

G:------19-------19-------|--19-------19----19-|

D:------------------------|--------------------|

A:-17------17-15----15----|--------------------|

E:---------------------15-|-----15-15----15----|

G:------19-------19-------|--19----19-----------|

D:------------------------|---------------------|

A:-17------17-15----15----|-----15--------------|

E:---------------------15-|-----------18-18--18-|

G:------19-------19-------|--19-------19----19-|

D:------------------------|--------------------|

A:-17------17-15----15----|--------------15----|

E:---------------------15-|-----15-15----------|

G:------19-------19-------|--19----------------|

D:------------------------|--------20----------|

A:-17------17-15----15----|--------------------|

E:---------------------15-|-----15----18-18h20-|

G:------19-------19-------|--19-------19----19-|

D:------------------------|--------------------|

A:-17------17-15----15----|--------------------|

E:---------------------15-|-----15-15----15----|

G:------19-------19-------|--19----19---------|

D:------------------------|-------------------|

A:-17------17-15----15----|-------------------|

E:---------------------15-|-----15-----18--18-|

G:------19-------19-------|--19-------19----19-|

D:------------------------|--------------------|

A:-17------17-15----15----|--------------------|

E:---------------------15-|-----15-15----15----|

G:------19-------19----------|

D:---------------------------|

A:-17------17-15----15-------|

E:---------------------15~~~-|

Verse 3:

G:---------------------|-------------------|

D:-----------------7---|-------------------|

A:-5----55-55-5-55---5-|-3--33333----------|

E:---------------------|----------3-3-3333-|

G:-----------------|-----------------|

D:-------2--2------|-----------------|

A:-5--55------5-00-|-3-333-3---------|

E:-----------------|---------3-33333-|

G:---------------------|------------------|

D:------3h5-3-2--------|------------------|

A:-5--5---------5-3-00-|-3-33-33----------|

E:---------------------|---------3-3-3333-|

G:------------------|----------------------|

D:--------2--2------|----------------------|

A:-5--5-5------5-00-|3--3-3-33-------------|

E:------------------|----------3-33-33-x-x-|

Play "Bridge 1" once

Verse 4:

G:-----------------|-------------------|

D:-----------------|-------------------|

A:-5--5-5-5--5-5-0-|-3--3-3------------|

E:-----------------|---------3--33-3-3-|

G:-------------|-------------------|

D:----2-2------|-------------------|

A:-5------5--0-|-3--33-33----------|

E:-------------|-----------3-33-33-|

G:--------------------|--------------------|

D:----2-3-5-3-2h3p2---|--------------------|

A:-5----------------0-|-3--3-3-------------|

E:--------------------|---------3--3-3-x-x-|

G:-----------------|-------------------|

D:-----------------|-------------------|

A:-5--5-5-5--5-5-0-|-3--3-3------------|

E:-----------------|---------3--33-0-0-|

Play "Bridge 2" once

Chorus 2:

G:------19-------19-------|--19-------19----19-|

D:------------------------|--------------------|

A:-17------17-15----15----|--------------------|

E:---------------------15-|-----15-15----15----|

G:------19-------19-------|--19----19-------------|

D:------------------------|-----------------------|

A:-17------17-15----15----|-----------------------|

E:---------------------15-|-----15----18-18-18-18-|

G:------19-------19-------|--19-------19----19-|

D:------------------------|--------------------|

A:-17------17-15----15----|--------------------|

E:---------------------15-|-----15-15----15----|

G:------19-------19-------|--19----19---------|

D:------------------------|-------------------|

A:-17------17-15----15----|-----15------------|

E:---------------------15-|-----------18--18--|

G:------19-------19-------|--19-------19----19-|

D:------------------------|--------------------|

A:-17------17-15----15----|--------------15----|

E:---------------------15-|-----15-15----------|

G:------19-------19-------|--19----------------|

D:------------------------|--------------------|

A:-17------17-15----15----|--------------------|

E:---------------------15-|-----15/18-17-15-13-|

G:------19-------19-------|--19-------19----19-|

D:------------------------|--------------------|

A:-17------17-15----15----|--------------------|

E:---------------------15-|-----15-15----15----|

G:------19-------19-------|--19----19---------|

D:------------------------|-------------------|

A:-17------17-15----15----|-------------------|

E:---------------------15-|-----15-----18--18-|

G:------19-------19-------|--19-------19----19-|

D:------------------------|--------------------|

A:-17------17-15----15----|--------------------|

E:---------------------15-|-----15-15----15----|

G:------19-------19----------|

D:---------------------------|

A:-17------17-15----15-------|

E:---------------------15~~~-|

Verse 5:

G:-----------------|-----------------|

D:-----------------|-----------------|

A:-5--5-5-5--5-5-0-|-3-33-33---------|

E:-----------------|---------3-33-33-|

G:-------------------|-----------------|

D:-------------------|-----------------|

A:-5--5-5-5--55-5-00-|-3-33-33---------|

E:-------------------|---------3-33-33-|

Outro/Guitar Solo:

G:-----------------|-----------------|

D:------2--2-------|-----------------|

A:-5-55-------5-02-|-3-33-33---------|

E:-----------------|---------3-33333-|

G:------------------|-----------------|

D:------5h7-5-4-5-2-|-----------------|

A:-5-55-------------|-3-33-5--------3-|

E:------------------|--------3-3335---|

G:-------------------|------------------|

D:-------------------|------------------|

A:-5--5-5-5--55-5-00-|-3-33-33----------|

E:-------------------|---------3-333333-|

G:----------------|------------------|

D:------2--2------|---5-----------55-|

A:-5-55------5-00-|-3---3-5----------|

E:----------------|---------3-3333---|

G:-------------------|------------------|

D:-------------------|------------------|

A:-5--5-5-5--55-5-00-|-3-3333-5---------|

E:-------------------|----------3-33333-|

G:-----------------|------------------|

D:------2-3-2------|------------------|

A:-5-55-------5-00-|-3-33333----------|

E:-----------------|---------33-33333-|

G:------------------------|------------------|

D:------2-3-5-3-2h3p2-----|------------------|

A:-5-55---------------5-0-|-3-33333----------|

E:------------------------|---------3-333333-|

G:-----------------|---5--------------|--------|

D:-----------------|-----5--------5---|--------|

A:-5--5-5-5--5-5-0-|-3-----3--------5-|-5~~~~~-|

E:-----------------|---------33-3-----|--------|

Get this song at:  amazon.com sheetmusicplus.com

Share your thoughts

0 Comments found