Red Hot Chili Peppers

Red Hot Chili Peppers - Off The Map Pea bass tab

Song : Pea

Band : Red Hot Chili Peppers

Intro

G-------------------|

D|--3-----3-3-----3-|

A|------------------| x6

E|------------------|

G|------------------|------------------|------------------|------------------|

D|--3-----3-3-----3-|------------------|------------------|------------------|

A|------------------|--4-----4-4-----4-|--3-----3-3-----3-|--1-----1-1-----1-| x4

E|------------------|------------------|------------------|------------------|

G|------------------|------------------|------------------|------------------|

D|3/5-----5-5-----5-|--8-----8-8-----8-|--3-----3-3-----3-|--3-3---33--33-023|

A|------------------|------------------|------------------|------------------|

E|------------------|------------------|------------------|------------------|

G|------------------|------------------|------------------|------------------|

D|--5-----5-5-----5-|--8-----8-8-----8-|--3-----3-3-----3-|--3-3---3---3---3-|

A|------------------|------------------|------------------|------------------|

E|------------------|------------------|------------------|------------------|

G|------------------|------------------|------------------|------------------|

D|--2-----2-2-----2-|----------0---3---|--2-----2-2-----2-|----------0-----5-|

A|------------------|--3-----3---------|------------------|--3-----3---------|

E|------------------|------------------|------------------|------------------|

G|------------------|------------------|------------------|------------------|

D|--2-----2-2-----2-|----------0---3---|--2-----2-2-----2-|--0-----0-3-3---2-|

A|------------------|--3-----3---------|------------------|------------------|

E|------------------|------------------|------------------|------------------|

G|------------------|------------------|------------------|------------------|

D|-(2)2-2--22-2---2-|--0-----3-3-3---2-|--2-2-2-2-2-2-2-2-|--0-0-0-0-3-3-3-3-|

A|------------------|------------------|------------------|------------------|

E|------------------|------------------|------------------|------------------|

G|------------------|------------------|------------------|

D|--2---2-2-2-2-2-2-|--0-0-0-0-3-3-3-3-|--2---------------|

A|------------------|------------------|------------000---|

E|------------------|------------------|------------------|

Taken from The BassMasta -- http://www.tabs-database.com

Get this song at:  amazon.com sheetmusicplus.com

Share your thoughts

0 Comments found