Red Hot Chili Peppers

Red Hot Chili Peppers - Other side guitar tab

Red Hot Chili Peppers - Otherside

=================================

Intro Guitar solo

Am

G-------------------------------|-----------------------------------|

D----------7--7--9-7------------|-------------------7--7--9-7-------|

A-7--7--7------------10--7--(7)-|-5--5--5--7--7--7------------10--7-|

E-------------------------------|-----------------------------------|

How long, how long, will

G-------------------------------------------------|

D------------------------------7--7--7--9-7-------|

A-7--7-7--5--5--5--7--7--7-7----------------10--7-|

E-------------------------------------------------|

I slide...

G-----------------------------------9-|-9--9-----------|

D--------------------------7--7--7----|-------9--9--9--|

A7--7-7--5--5--5--7--7--7-------------|----------------|

E-------------------------------------|----------------|

I don't believe it's bad...

Intro (bass and intro riff on single guitar)

Am F C G

e|---------------------------------------------------|

B|---------------------------------------------------|

G|-------------2---2--4-2-0--------------------------|

D|-2---2---2-----------------2-------------0---0--0--|

A|-0------0-0----------------3-----------------------|

E|-------------1---1-----------------------3---3--3--|

[Chorus]

Am F C

How long how long will I slide

G Am F C

Separate my side____ I don't

G Am F

I don't believe it's bad____

C

Slit my throat

G

It's all I ever

e--------------0--15---------(15)---|-------------15|

B--13---------12--------------------|---13------12--|

G-----------------------------------|---------------|

D-----------------------------------|---------------|

A-0---------------------------------|---------------|

E-----------0-----------------------|---------------|

...I heard your voice through a photograph...

[Verse]

Am Em

I heard your voice through a photograph

Am Em

I thought it up it brought up the past

Am Em

Once you know you can never go back

G Am

I've got to take it on the otherside

Am Em

Centuries are what it meant to me

Am Em

A cemetery where I marry the sea

Am Em

Stranger things could never change my mind

G Am

I've got to take it on the otherside

G Am

Take it on the otherside

G

Take it on____________

Am

Take it on___

[Chorus]

Am Em

Pour my life into a paper cup

Am Em

The ashtray's full and I'm spillin' my guts

Am Em

She wanna know am I still a slut

G Am [drumfill - no chord]

I've got to take it on the otherside

Am Em

Scarlet starlet and she's in my bed

Am Em

A candidate for my soul mate bled

Am Em

Push the trigger and pull the thread

G Am

I've got to take it on the otherside

G Am

Take it on the otherside

G

Take it on____________

Am

Take it on___

[Chorus]

[Interlude]

|-------------Harmonics--------------------|

Em C

e-----12-----12-------12------------------------------------------------------

B--------------------------------12---12-----12-------------------------------

G-----------------------------------------------------------------------------

Solo

Am F C G

------------------10/12--12-12-12---12h15--12-12-12h15-12-12h15-12--12h5-----

--10--10-10-10-10------------------------------------------------------------

-----------------------------------------------------------------------------

Em C

Em C

Em

Turn me on take me for a hard ride

C

Burn me out leave me on the otherside

Em

I yell and tell it that it's not my friend

C

I tear it down I tear it down And then it's born again

Am F C G

[Chorus] 2x

Chords:

Am x02210

F 133211

C x32010

G 320033

Em 022000 or x7998x

____ _ _ _

| _ __ ___ _| | _| |_ __ _| |__ ___

| |_) / _` / / / |/ / __/ _` | '_ / __|

| _ < (_| | V V /|

Get this song at:  amazon.com sheetmusicplus.com

Share your thoughts

0 Comments found