Red Hot Chili Peppers

Red Hot Chili Peppers - Baby Appea bass tab

x=mute

h=hammer on

Verse 1

G-------------------------------------

D--4-44-24--------4-------------------

A-----------0h24----------------------

E-------------------------------------

Verse 2

G------------------------------------

D--4-44-24---------4-----------------

A-----------0h24---------------------

E----------------------2202-02-2-02--

Verse 3

G-------------------------------------

D-------------------------------------

A--5-55-35------3--5------------------

E-----------1h3-----------------------

Chorus

G-------------------------------------

D----------xx55-----------------------

A-----45----------45------------------

E-0--------------0--0-3-5-------------

Guitar Solo

G-------------------------------------

D-------------------------------------

A-------------------------------------

E--00--00--00--00--00--00--00--00--00-

G-------------------------------------

D-------------------------------------

A-------------------------------------

E--00--00--00--00--00--00-------------

G-------------------------------------

D-------------------------------------

A-------------------------------------

E--2/20\\18/20\\18/20-------------------

Breakdown

G-------------------------------------

D-------------------------------------

A-------------------------------------

E--2----2----2----2-----20\\-----------

Outro

G-------------------------------------

D-------------------------------------

A--77-5-4-5-4-------------------------

E-------------3--00--00---------------

Verse 1

Verse 2

Verse 3

Verse 2

Verse 1

Verse 2

Chorus

Verse 1

Verse 2

Verse 1

Verse 2

Verse 1

Verse 2

Verse 1

Verse 2

Chorus

Guitar solo

Breakdown

Verse 1

Verse 2

Verse 3

Verse 2

Verse 1

Verse 2

chorus

outro

Get this song at:  amazon.com sheetmusicplus.com

Share your thoughts

0 Comments found