Red Hot Chili Peppers

Red Hot Chili Peppers - Pea (live) bass tab

Song: Pea (live).

Band: Red Hot Chili Peppers.

Intro:

|-----------------------------------------------------------------------------------------------|

|3-x-3-3-x-3-3-x-3-3-x-3-3-x-3-3-x-3-3-x-3-3-x-3-3-x-3-3-x-3-3-x-3-3-x-3-3-x-3-3-x-3-3-x-3-3-x-3|

|-----------------------------------------------------------------------------------------------|

|-----------------------------------------------------------------------------------------------|

Verse:

|----------------------------------------------||----------------------------------------------|

|3-x-3-3-x-3-----------------------------------||3-x-3-3-x-3-----------------------------------|

|-----------4-x-4-4-x-4-3-x-3-3-x-3-1-x-1-1-x-1||-----------4-x-4-4-x-4-3-x-3-3-x-3-1-x-1-1-x-1|

|----------------------------------------------||----------------------------------------------|

|----------------------------------------------||----------------------------------------------|

|3-x-3-3-x-3-----------------------------------||3-x-3-3-x-3-----------------------------------|

|-----------4-x-4-4-x-4-3-x-3-3-x-3-1-x-1-1-x-1||-----------4-x-4-4-x-4-3-x-3-3-x-3-1-x-1-1-x-1|

|----------------------------------------------||----------------------------------------------|

Chorus:

|---------------------------------------------------------------------------------------------------------------|

|3/5-x-5-5-x-5-8-x-8-8-x-8-3-x-3-3-x-3-3-3-3-3-3-3-3-3-0-2-3-5-x-5-5-x-5-8-x-8-8-x-8-3-x-3-3-x-3-3-3-x-3-x-3-x-3|

|---------------------------------------------------------------------------------------------------------------|

|---------------------------------------------------------------------------------------------------------------|

Interlude:

|-----------------------------------------------------------------------|

|-----------------0-3-----------------0-------------------0-3-----------|

|7-x-7-7-x-7-3-x-3---7-x-7-7-x-7-3-x-3-0-7-x-7-7-x-7-3-x-3---7-x-7-7-x-7|

|-----------------------------------------------------------------------|

|-----------------------------------||-----------------------------------|

|-----------------------------------||-----------------------------------|

|5-5-5-5-8-8-8-8-8-7-7-7-7-7-7-7-7-7||5-5-5-5-8-8-8-8-8-7-7-7-7-7-7-7-7-7|

|-----------------------------------||-----------------------------------|

|-----------------------------------||-----------------------------------|

|-----------------------------------||-----------------------------------|

|5-5-5-5-8-8-8-8-8-7-7-7-7-7-7-7-7-7||5-5-5-5-8-8-8-8-8-7-7-7-7-7-7-7-7-7|

|-----------------------------------||-----------------------------------|

Outro:

|-------------------------------------------------------------------------------------------------|

|-------------------------------------------------------------------------------------------------|

|5-5-5-8-8-8-7-7-7-7-7-7-7-7-5-5-5-8-8-8-7-7-7-7-7-7-7-7-5-5-5-8-8-8-7-7-7-7-7-7-7-7-5-5-5-8-8-8-7|

|-------------------------------------------------------------------------------------------------|

Get this song at:  amazon.com sheetmusicplus.com

Share your thoughts

0 Comments found