Red Hot Chili Peppers

Red Hot Chili Peppers - Californication (song) guitar tab

Californication was written by RHCP for thei 1999 album "Californication"

Tabbed by: Chris Lambourne

Verse Pt.1

e|--------------|--------------|

B|--------0--1--|--------------|

G|--------------|--------0--2--|

D|-----2--------|--------------|

A|--0-----------|-----3--------|

E|--------------|--1-----------|

Verse Pt.2

e|--------0---------------------------------------1--|

B|-----------1----------3--0----------------------3--|

G|---------------------------------------------2-----|

D|-----2------------------------------3-----0--------|

A|--3----------------2-------------3-----3-----------|

E|----------------3-------------1--------------------|

Pre-Chorus - it's easy to find the strumming pattern, listen

to the song

|--

B|-

e|--0--0--|

B|--1--1--|

G|--2--2--|

D|--2--3--|

A|--0--3--|

E|--------|

Chorus

e|--0--0--1--0--|

B|--1--3--3--1--|

G|--0--0--2--2--|

D|--2--0--0--2--|

A|--3--2-----0--|

E|--------------|

Verse Pt.1

Verse Pt.2

Verse Pt.1

Verse Pt.2

Pre-Chorus

Chorus

Solo

e|------9---------------9------------------------------------------------------------

B|--10--------------10---------------------------------------------------------------

G|---------13^11-----------13^11------11-11-11-11\9-----------------9--11^11--9------

D|---------------------------------------------------11-11-----9-11--------------11--

A|-----------------------------------------------------------------------------------

E|-----------------------------------------------------------------------------------

e|------9--12--14--------9--12--14/16--14------17--16--14--12--14--12------12------

B|--10---------------10------------------------------------------------14------14--

G|---------------------------------------------------------------------------------

D|---------------------------------------------------------------------------------

A|---------------------------------------------------------------------------------

E|---------------------------------------------------------------------------------

e|--------------12---------14/16--14--12------12--------------12--------------|

B|--14--14--14------14--------------------14------14--12----------14--12------|

G|--16--16------------------------------------------------14--------------13--|

D|----------------------------------------------------------------------------|

A|----------------------------------------------------------------------------|

E|----------------------------------------------------------------------------|

Verse Pt.1

Verse Pt.2

Pre-Chorus

Chorus

Tabbed this quite a while ago, but thought it was more accurate

than the other tab for this great song. Enjoy, and rate high!

Get this song at:  amazon.com sheetmusicplus.com

Share your thoughts

0 Comments found