Red Hot Chili Peppers

Red Hot Chili Peppers - Fight Like A Brave guitar tab

Artist:red hot chili peppers

Song:fight like a brave

Intro 1st time

|------------------------------------------|

|------------------------------------------|

|-------6-5-6---------------------5--------|

|-----7-7-5-7----x---------7-7-7--5--7-----|

|--0--0-0---0------------0-0-0-0-----4-----|

|------------------------------------------|

|------------------------------------------|

|------------------------------------------|

|-------6-5-6--------------6-6-6-----------|

|-----7-7-5-7----x---------7-7-7--5-5--6/7-|

|--0--0-0---0------------0----------5--4/5-|

|-----------------------------------3------|

verse x4

|------------------------------------------|

|-------------------5^---------------------|

|-------6-5-6-------5^------------5--------|

|-----7-7-5-7----x---------7-7-7--5--7-----|

|--0--0-0---0------------0-0-0-0-----4-----|

|------------------------------------------|

|------------------------------------------|

|-------------------5^---------------------|

|-------6-5-6-------5^-----6-6-6-----------|

|-----7-7-5-7----x---------7-7-7--5-5--6/7-|

|--0--0-0---0------------0----------5--4/5-|

|-----------------------------------3------|

chorus

|------------------------------------------|

|-----------------------7^-----------------|

|-----------------------7^-----------------|

|----4-4-4-4-4-4-4---x---------------------|

|-2--2-2-2-0-0-0-2-------------------------|

|------------------------------------------|

|-------------------14-14-14-14------------|

|-------------------14-14-14-14------------|

|-------------4-----14-14-14-14------------|

|-4-4-4-4-4-4-4----------------------------|

|-2-2-2-0-0-0-2----------------------------|

|------------------------------------------|

|------------------------------------------|

|-----------------------7^-----------------|

|-----------------------7^-----------------|

|----4-4-4-4-4-4-4---x---------------------|

|-2--2-2-2-0-0-0-2-------------------------|

|------------------------------------------|

|------------------------------------------|

|------------------------------------------|

|-------------2-2-------1--2---------------|

|-4-4-4-4-4-4-2-2-------2--2---------------|

|-2-2-2-0-0-0-0-0-------2--2---------------|

|-----------------------0--0---------------|

then play the intro agen

|------------------------------------------|

|------------------------------------------|

|-------6-5-6---------------------5--------|

|-----7-7-5-7----x---------7-7-7--5--7-----|

|--0--0-0---0------------0-0-0-0-----4-----|

|------------------------------------------|

|------------------------------------------|

|------------------------------------------|

|-------6-5-6--------------6-6-6-----------|

|-----7-7-5-7----x---------7-7-7--5-5--6/7-|

|--0--0-0---0------------0----------5--4/5-|

|-----------------------------------3------|

|_______|

|

here 2nd guitar does a riff

|------------------------------------------|

|------------------------------------------|

|---------------5--------------------------|

|----------5-------7-----------------------|

|----5--7----7-----------------------------|

|------------------------------------------|

and the bridge has bass and drums,

SOLO

|------------------------------------------------------------------------------------|

|----------------------7b8--------------------7b8--16b18-(16)18~~-18r16p12----14b16--|

|----------------------7b8------------------9-7b8--------------------------14-14b16--|

|--7/9-9-9-9-9-9p7-7h9------7/9-9-9-9-9-9h7------------------------------------------|

|------------------------------------------------------------------------------------|

|------------------------------------------------------------------------------------|

|------------------------------------------------------------------------------------|

|--15-12b13~--12-12-9-------12-12-9-------12-12-9------------------------------------|

|-----11b12~--12-12-9-7-9-7-12-12-9-7-9-7-12-12-9-7-9-12-9-7-9-12-9-7-9-12-12-9-0----|

|------------------------------------------------------------------------------------|

|------------------------------------------------------------------------------------|

|------------------------------------------------------------------------------------|

|---21^------21^------------21^------19-21^------21^-21^-21^-21-19-1912-----------12-|

|---------------------0---------0----------------------------------------/15 15 15---|

|---------------------0---------0--0-------------------------------------------------|

|-0------0---------0--0---0-----0--0-------------------------------------------------|

|------------------------------------------------------------------------------------|

|------------------------------------------------------------------------------------|

|----12----12-----12-12----12-----------15-(15)--------------------------------------|

|-15----15----14--------14----14-14-12------12---------------------------------------|

|---------------------------------------------------------7^-------------------------|

|-------------------------------------------------7-7-8-9----9-8-7-87---7-------9-9--|

|----------------------------------------------------------------------9---8-7-0-----|

|------------------------------------------------------------------------------------|

Get this song at:  amazon.com sheetmusicplus.com

Share your thoughts

0 Comments found