Red Hot Chili Peppers

Red Hot Chili Peppers - They're Red Hot bass tab

Intro

G ------------------------|------------------------|------------------------|

D ------------------------|------------------------|------------------------|

A -3--3--2--2--0--0-0-0-0-|-5--5--------3--3-3-3-3-|-3--3--2--2--0--0-0-0-0-|

E ------------------------|-------3--3-------------|------------------------|

G ---------|---------------|

D ---------|---------------|

A -5---5---|-3----3-0--0---|

E -------3-|-------------4-|

Verse Repat X3

G ------------------------|------------------------|------------------------|

D ------------------------|------------------------|------------------------|

A -3--3--2--2--0--0-0-0-0-|-5--5--------3--3-3-3-3-|-5--5--------3--3-3-3-3-|

E ------------------------|-------3--3-------------|-------3--3-------------|

G ------------------------|------------------------|

D ------------------------|------------------------|

A -3--3--2--2--0--0-0-0-0-|-5--5--------3--3-3-3-3-|

E ------------------------|-------3--3-------------|

G ------------------------|-----------|-----------------|

D ------------------------|---4-5-7---|-----------------|

A -3--3--2--2--0--0-0-0-0-|-5---------|---3----3-0--0---|

E ------------------------|---------3-|-3-------------4-|

End

G ------------------------|------------------------|------------------------|

D ------------------------|------------------------|------------------------|

A -3--3--2--2--0--0-0-0-0-|-5--5--------3--3-3-3-3-|-5--5--------3--3-3-3-3-|

E ------------------------|-------3--3-------------|-------3--3-------------|

Get this song at:  amazon.com sheetmusicplus.com

Share your thoughts

0 Comments found