Red Hot Chili Peppers

Red Hot Chili Peppers - Million Miles Of Water Bass guitar tab

This is such a great song.

I'm going to tab the other B-sides too. So be ready.

G[------------------------------]\\

D[------------------------------]\\ \\____3 Times

A[----2-222-2----555--5-5h7-----]\\ /

E[-0~~--------3~~---5-----------]\\/

G[--------------------------]

D[--------------------------]

A[----2-222-2-5-555-55-5-5--]

E[-0~~----------------------]

___________________________________________________________________________

(Repeat everything above this line)

G[--------------16-1616-16-----------------------------------------------]

D[-17-1717-1614---------------14-1414-12-10-1010------------10-10--10/12-]

A[------------------------1414-------------------12-12-1212------10------]

E[-----------------------------------------------------------------------]

G[-----------------------------]

D[--------------12-1212-1412/--]

A[-10-10-101210----------------]

E[-----------------------------]

G[------------------------------]\\

D[------------------------------]\\ \\____2 Times

A[----2-222-2----555--5-5h7-----]\\ /

E[-0~~--------3~~---5-----------]\\/

G[----------------------------]

D[----------------------------]

A[----2-222-2----555--5-5h7---]

E[-0~~--------3~~---5---------]

G[--------------------------]

D[-------------------754----]

A[----2-222-2----555----7---]

E[-0~~--------3~~-----------]

G[----------------------------]

D[----------------------------]

A[----2-222-2----555--5-5h7---]

E[-0~~--------3~~---5---------]

G[--------------------------]

D[--------------------------]

A[----2-222-2-5-555-55-5-5--]

E[-0~~----------------------]

G[--------------16-1616-16-1616-------------------------------------------]\\

D[-17-1717-1614----------------14-1414-12-10-1010------------10-10--10/9--]\\

A[------------------------------------------------12-12-1212------10------]\\

E[------------------------------------------------------------------------]\\

G[------------------------------]

D[-----------1012-12-1212-1212--]

A[-10-10-1010-------------------]

E[------------------------------]

G[-------------------16-1616-16-1616-----------------------------------]

D[-17-17h19-17-161716---------------14-14h16p14-12-10-1010-------------]

A[--------------------------------------------------------12-12-1212---]

E[---------------------------------------------------------------------]

G[---------------------------------------------]

D[-10-10--10/12-------------1012-12-1212-1212--]

A[------10-----10--10--1010--------------------]

E[---------------10--10------------------------]

During Guitar Solo

G[------------------------------]\\

D[------------------------------]\\ \\____3 Times

A[----2-222-2----555--5-5h7-----]\\ /

E[-0~~--------3~~---5-----------]\\/

G[---------------------------]

D[---------------------------]

A[----2-222-2-5-555-55-5-5h7-]

E[-0~~------------------5----]

G[------------------------------]\\

D[------------------------------]\\ \\____3 Times

A[----2-222-2----555--5-5h7-----]\\ /

E[-0~~--------3~~---5-----------]\\/

G[---------------------------]

D[---------------------------]

A[----2-222-2-5-555-55-5-5h7-]

E[-0~~------------------5----]

G[-------------16-1616-16-1616---------------------------------------]

D[-17---171614----------------14-14h16p14-12h14-12-10-1010-----------]

A[--------------------------------------------------------12-12-1214-]

E[-------------------------------------------------------------------]

G[-------------------------------------------]

D[-10-10-1010------------91012-12-1212-1212--]

A[-------------10-10-1010--------------------]

E[-------------------------------------------]

G[-----------------16-1616-16-1616---------------------------------------]

D[-17-171917-161416---------------14-14h16p14-12h14-12-10-1010-----------]

A[------------------------------------------------------------12-12-1216-]

E[-----------------------------------------------------------------------]

G[--------------------------------------------]

D[-10-10--1012-------------1012-12-1212-1212--]

A[------10------10-10-1010--------------------]

E[--------------------------------------------]

G[-----------------16-1616-16-1616----------------------------------------]

D[-17-171917-161416---------------14-14h16p14-12h14-12-10--1010-----------]

A[-------------------------------------------------------10------12--1212-]

E[-------------------------------------------------------------12--12-----]

G[------------------------------------------]

D[-10-10-1012-----------91012-12-1212-1212--]

A[------------10-10-1010--------------------]

E[------------------------------------------]

G[------------------------------------------------------------------------]

D[-17-171917-161614---14h16p14----14-14h16p14-12h14-12-10--1010-----------]

A[-----------------14-----------14-----------------------10------12--1212-]

E[----------------------------14-------------------------------12--12-----]

G[--------------------------------------------------------]

D[-10-10-1012------------1012-12-1212-1212----------------]

A[------------10-10-1010-------------------10~~~~~~~~~~---]

E[--------------------------------------------------------]

Comment and Rate. You know the drill.Added by tabs-database.com and our distinguished partners

Get this song at:  amazon.com sheetmusicplus.com

Share your thoughts

0 Comments found