Red Hot Chili Peppers

Red Hot Chili Peppers - Off The Map Jams bass tab

Around the world:

Solo: Where plinky fill would usually be- lasts longer though.

G------------------------------------0-3-0-5-0-7-0-10-0-12-0-15-0-17-0-18-0 -15- 0 -12- 0-10-12-

D---------------------3---x-5-----------------------------------------------------------------------------

A---------4---x-55-----------------------------------------------------------------------------------------

E---3---------------------------------------------------------------------------------------------------------

G--0--9-10-9-10-------0-3-0-5------------------3------------

D-----------------------------------------0-3-4-5------5---3-----0-1---

A----------------------------------------------------------------------

E---------------------------------------------------------------------

If you have to ask: Tune to D as usual.

At end:

G--------7----5-------55-5-0-5-5--6-7--------7---5-----55-5-0-5-5-6-7--------

D---------------------------------------------------------------------

A--5------------------------------------------5---------------------------

D--------------------------------------------------------------------------------

This bit played very fast:

G--x 12 10------10--------------------------------------------------------------------------

D------------12------12-10-12-10------10------------------------------------------------

A--------------------------------------12------12-10-12-10------10----------------------

D-----------------------------------------------------------------14-------14--12--14--10-

G-----------------------------------------------------------------------------------10----------------------

D----------------7---------10-8-7---------7--8-7-------------------------7-8---------------------------

A--------8-10-----8---8----------8----8-----------8-----------------------------------8-------------------

D----12---------------------------------------------------12--10~~~-10--------------------12-10~~~---

G----------------------------------------------------------------

D------7--8-7--------------------------------------------------

A--8-----------8---------------0--1----x--3-x----------------

D------------------12-10~~~----------------------x-0--------

G----------------------------10-9--------7-------------------------------------------------------------5--

D-------------------8-7------------10-------8-7----------10---------12--------14-------3-------------

A------------8-7--------8------------------------------------------------------------------------0-3------

D----7-8-7------------------------------------------0-10-------0-12-----0-14------0-3----------------

G---------------------------------------------------------------------------------------------

D-----------------------------------------------------------------------------------------------

A----------------------------1--0-------------------------------1--0----------------------------

D--0-0-3-00-3-0-3-2-0----------5--0-0-3-00-3-0-3-2-0---------------------------------

G---------------------------------------------------------------------------------------------

D-----------------------------------------------------------------------------------------------

A----------------------------1--0-------------------------------1--0----------------------------

D--0-0-3-00-3-0-3-2-0----------5--0-0-3-00-3-0-3-2-0---------------------------------

G---------------------------10--------------------------------------------------10~~----14 14 10---

D----------------10------------------10------12-10----------------10------------------------------

A---------12---------12--------12------12----------12--------12---12-------------------------

D---0~----------------------------------------------------0-----------------------------------------

G-----------------------10-------------------------------------------------10--------------------------

D------------10------------------10------12---10-----------------10------------12-10-----10--------

A------12--------12--------12------12-------------12-------12------12----------------12------------

D--0-----------------------------------------------------0----------------------------------------------

G-------------------------------------------------------------------------------------------------------------

D---12-10-----10------------------------------------------------------------------------------------------

A-----------12--------0---3-0-2-0-3-0-2-0-3-0-2-0----0---3-0-2-0-3-0-2-0-3-0-2-0-------------

D------------------------------------------------------------3------------------------------------3---00-----

G--------------------------------------------------------------------------------------------------

D----------------------------------------3-0-3-0-3-0-3-0-33-0-------333-0--333-0-555-0---------

A--3-0-2-0-3-0-2-0-3-0-2-0-3-0----------------------------------------------------------

D----------------------------------------------------------------------------------------------

G--555------------------------555---555-----5555h777-5h777-5h777-5h7-7777h999-9----------

D---------0---333-0-333-0-------0-------0--------------------

A-------------------------------------------------

D-------------------------------------------------

G--9999h10-10-10-10-10101010h 12-12-12-12-12121212h14141414---14 15 14141515

D------------------------------------------------

A------------------------------------------------

D------------------------------------------------

G--17-17 19-19-19-19-19-19-19------------------------------------

D---------------------------------------------------------------------------

A---------------------------------------------------------------------------

E---------------------------------------------------------------------------

Taken from The BassMasta -- http://www.tabs-database.com

Get this song at:  amazon.com sheetmusicplus.com

Share your thoughts

0 Comments found