Red Hot Chili Peppers

Red Hot Chili Peppers - All Around The World bass tab

-------------------------------------------------------------------------------

All Around The World - Red Hot Chili Peppers

-------------------------------------------------------------------------------

Tabbed By : Blades

Notes/Comments: Slap open E string for bass effect.

Listen to song for length of notes.

Tuning: Standard

Tempo: 100 BPM

Intro

S S S S S

G|-----------------------|

D|-----------------------|

A|-----------------------|

E|-0-----0---0---0---0---|

G|---------------------------------------------------|

D|--12h14-14-12h14-14-12h14-14-12h14-12--------------|

A|--------------------------------------14-13-12-10--| \

E|---------------------------------------------------| \

\

G|---------------------------------------------------| \

D|--12h14-14-12h14-14-12h14-14-12--------------------| \

A|--------------------------------14-13-12-10--------| \

E|--------------------------------------------12-10--| \

|Play 2

times

G|---------------------------------------------------| /

D|--12h14-14-12h14-14-12h14-14-12h14-12--------------| /

A|--------------------------------------14-13-12-10--| /

E|---------------------------------------------------| /

/

G|---------------------------------------------------| /

D|--12h14-14-12h14-14-12h14-14-12--------------------| /

A|--------------------------------14-13-12-10--------|

E|--------------------------------------------12-10--|

G|------|

D|------| End with G on second time of playing - Eight Note

A|------|

E|-3----|

Verse

G|------------------------------|

D|----15---17----------14---15--|

A|------------------------------|

E|-3------------1--0------------|

G|------------------------------|

D|----15---17----------15-14----|

A|---------------------------13-|

E|-3------------1--0------------|

G|------------------------------|

D|----15---17----------14---15--|

A|------------------------------|

E|-3------------1--0------------|

G|------------------------------|

D|----15---17-----------3-2-----|

A|--------------------1-----1-0-|

E|-3------------1--3------------|

G|------------------------------|

D|----15---17----------14---15--|

A|------------------------------|

E|-3------------1--0------------|

G|----------------------------------------|

D|----15---17-----------------------------| Trill The 7-8's and the 5-6's.

A|----------------------------------------| (Hammer on and Pull off)

E|-3------------7-8-7-8-7-8---5-6-5-6-5-6-|

G|------------------------------|

D|----15---17----------14---15--|

A|------------------------------|

E|-3------------1--0------------|

G|----------------------------|

D|----15---17-------------3-5-|

A|--------------------1-5-----|

E|-3------------1--3----------|

Chorus - For the chorus, palm mute and pluck with thumb

(chorus divided into bars)

G|------5--8--|----------7----7-|

D|-6----------|-5----5----------|

A|------------|-----------------|

E|------------|-----------------|

G|-------------5|---------------------|

D|-3----6-------|---------5------5-5--|

A|--------------|-3---3-3-------------|

E|--------------|---------------------|

G|------5--8---|---------7----7-|

D|-6-----------|5----5----------|

A|-------------|----------------|

E|-------------|----------------|

G|-------------5|----------------|

D|-3----6-------|---------5---10-|

A|--------------|-3-----3--------|

E|--------------|----------------|

G|------|

D|------| End palm muting with G - Eight Note

A|------|

E|-3----|

Play Verse Again

Play Chorus Again - palm mute and pluck with thumb

When playing second time play like this:

(same thing except last bar is different)

G|------5--8--|----------7----7-|

D|-6----------|-5----5----------|

A|------------|-----------------|

E|------------|-----------------|

G|-------------5|---------------------|

D|-3----6-------|---------5------5-5--|

A|--------------|-3---3-3-------------|

E|--------------|---------------------|

G|------5--8---|---------7----7-|

D|-6-----------|5----5----------|

A|-------------|----------------|

E|-------------|----------------|

G|-------------5|-----------------------|

D|-3----6-------|-----------------------|

A|--------------|-3-----3-3--5---18--20-|

E|--------------|-----------------------|

Back to Intro

G|---------------------------------------------------|\

D|--12h14-14-12h14-14-12h14-14-12h14-12--------------| \

A|--------------------------------------14-13-12-10--| \

E|---------------------------------------------------| \

|play 4X

G|---------------------------------------------------| /

D|--12h14-14-12h14-14-12h14-14-12--------------------| /

A|--------------------------------14-13-12-10--------| /

E|--------------------------------------------12-10--|/

Verse again

G|------------------------------|

D|----15---17----------14---15--|

A|------------------------------|

E|-3------------1--0------------|

G|---------------------------|

D|----15---17--17-15---------|

A|-------------------17-15~~-|<---bend 1/2 step,

E|-3-------------------------| then release and vibrate string

G|------------------------------|

D|----15---17----------14---15--|

A|------------------------------|

E|-3------------1--0------------|

G|------------------------------|

D|----15---17----------15-14----|

A|---------------------------13-|

E|-3------------1--0------------|

G|------------------------------|

D|----15---17----------14---15--|

A|------------------------------|

E|-3------------1--0------------|

G|------------------------------|

D|----15---17-----------3-2-----|

A|--------------------1-----1-0-|

E|-3------------1--3------------|

G|------------------------------|

D|----15---17----------14---15--|

A|------------------------------|

E|-3------------1--0------------|

G|----------------------------------------|

D|----15---17-----------------------------| Trill The 7-8's and the 5-6's.

A|----------------------------------------| (Hammer on and Pull off)

E|-3------------7-8-7-8-7-8---5-6-5-6-5-6-|

G|------------------------------|

D|----15---17----------14---15--|

A|------------------------------|

E|-3------------1--0------------|

G|-----------------------------|

D|---------------------3---3-5-|

A|-------------1-0-3-5---5-----|

E|-3--1--0-1-3-----------------|

Chorus again - played differently: (palm mute and pluck with thumb)

x = dead note, not rest - written in bars

G|-------------8---------|------------------------|

D|-6--6--x-6---------6---|-5-------------5------5-|

A|-----------------6---6-|------------------------|

E|-----------------------|----3----3---3-----3----|

G|--------------------|-5--5--5-----------------|--------------------|

D|------------5-6-5---|-x-----------------------|--------------------|

A|-8--x-x-8---------8-|-6------------3-----3----|------------6-5-3---|

E|--------------------|-----------3-----3-----6-|-4--4-x--4--------4-|

G|--------------------|---------------------|-----------------------|

D|--------------------|---------------------|-----------------3-5-5-|

A|--------------------|---------------------|-6--3--3--5-5--6-------|

E|-3--3--3--3-3---3-2-|-1--1-3--3-4--4-6--6-|-----------------------|

G|-----------------------|------------------|-----------------------|

D|-6--6-6--6--6-6----6---|-5----------------|-----------5---5-------|

A|-----------------6---6-|------------------|-8--8-x-x---------8--8-|

E|-----------------------|---3---3--3-3---3-|-----------------------|

G|-----------------------|------------------|--------------------|

D|-----------------------|------------------|--------------------|

A|-6--6-3-6-3h5--5-6-4-3-|----------6-------|--------------------|

E|-----------------------|-4-4-x-4----0-4-0-|-3--3-3--3--3--x--x-|

G|--------------------|----|

D|------------5-6-5---|----| End on D# - Whole note

A|-------8--8-------8-|-6--|

E|-1--1---------------|----|

Outro

G|----------------------------|

D|----------------------------| Play x14, then:

A|-5-8-7-5--5-5--5-5-5--0-3-0-|

E|----------------------------|

G|--------------------------------|-------------------------|

D|--------------------------------|-------------------------|

A|-5-8-7-5--10-10-10-10-10--0-3-0-|-5-8-7-5--12---12--12-12-|

E|--------------------------------|-------------------------|

| / slide up

| \ slide down

| h hammer-on

| p pull-off

| ~ vibrato

| + harmonic

| x Mute note

| S Slap

===============================================================================

Get this song at:  amazon.com sheetmusicplus.com

Share your thoughts

0 Comments found