Red Hot Chili Peppers

Red Hot Chili Peppers - Slane Castle Jam 2 bass tab

G-------------------------------------------------------x-7h9-7---7h9--|

D---------------7-------------------------6h7-------------------5------|

A--8-8-7-5-x--5---5-x------------3--5-5-5-----8-7----------------------|

E---------------------5-5-6--5h6------------------5-5-6----------------|

G-----------------------------------------------------|

D-----------------------------------------------------|

A----5---------------3-3/5--5---5-x-5h7p5-------------|

E--5---5--5-5-6--3-5----------5-----------8--5-6-6-6--|

G--------------------------9---9---10-10-9------------------------9---9---10-9-10h12-10-9----|

D--12-12-12-12-12-12-12--7---7---7-----------12-12-12-12-12-12--7---7---7----------------12--|

A--------------------------------------------------------------------------------------------|

E--------------------------------------------------------------------------------------------|

G--------------10-9-x---9---9---12-10-9-10------------------------|

D-----12-12-12--------7---7---7-----------------------------------|

A--12--------------------------------------5-5-7-8-7-5-7-5--------|

E----------------------------------------------------------5-5-6--|

Get this song at:  amazon.com sheetmusicplus.com

Share your thoughts

0 Comments found