Red Hot Chili Peppers

Red Hot Chili Peppers - Right On Time Bass guitar tab

G---------------------------------------------------------------------|

D---------------------------------------------------------------------|

A---9-7--------------9-7--------------9-7--------------9-7------------|

E-0-----9--xx9-xx9-0-----9--xx9-xx9-0-----9--xx9-xx9-0-----9--xx9-xx9-|

s s s s sss sss s s s s sss sss s s s s sss sss s s s s sss sss

G---------------------------------------------------------------------|

D---------------------------------------------------------------------|

A---9-7--------------9-7--------------9-7--------------9-7------------|

E-0-----9--xx9-xx9-0-----9--xx9-xx9-0-----9--xx9-xx9-0-----9--xx9-xx9-|

s s s s sss sss s s s sss sss s s s s sss sss s s s s sss sss

G---------------------9-9----9-9------------------11-11----11-11-|

D----11-11---11-11------------------9-9----9-9-------------------|

A------------------7-7----7-7------------------9-9------9-9------|

E-9-9-----9-9--------------------7-7----7-7----------------------|

G---------------------9-9----9-9------------------11-11----11-11-|

D----11-11---11-11------------------9-9----9-9-------------------|

A------------------7-7----7-7------------------9-9------9-9------|

E-9-9-----9-9--------------------7-7----7-7----------------------|

G---------------------9-9----9-9------------------11-11----11-11-|

D----11-11---11-11------------------9-9----9-9-------------------|

A------------------7-7----7-7------------------9-9------9-9------|

E-9-9-----9-9--------------------7-7----7-7----------------------|

G---------------------9-9----9-9------------------11-11----11-11-|

D----11-11---11-11------------------9-9----9-9-------------------|

A------------------7-7----7-7------------------9-9------9-9------|

E-9-9-----9-9--------------------7-7----7-7----------------------|

G---------------------------------------------------------------------|

D---------------------------------------------------------------------|

A---9-7--------------9-7--------------9-7--------------9-7------------|

E-0-----9--xx9-xx9-0-----9--xx9-xx9-0-----9--xx9-xx9-0-----9--xx9-xx9-|

s s s s sss sss s s s s sss sss s s s s sss sss s s s s sss sss

G---------------------------------------------------------------------|

D---------------------------------------------------------------------|

A---9-7--------------9-7--------------9-7--------------9-7------------|

E-0-----9--xx9-xx9-0-----9--xx9-xx9-0-----9--xx9-xx9-0-----9--xx9-xx9-|

s s s s sss sss s s s sss sss s s s s sss sss s s s s sss sss

G---------------------9-9----9-9------------------11-11----11-11-|

D----11-11---11-11------------------9-9----9-9-------------------|

A------------------7-7----7-7------------------9-9------9-9------|

E-9-9-----9-9--------------------7-7----7-7----------------------|

G---------------------9-9----9-9------------------11-11----11-11-|

D----11-11---11-11------------------9-9----9-9-------------------|

A------------------7-7----7-7------------------9-9------9-9------|

E-9-9-----9-9--------------------7-7----7-7----------------------|

G---------------------9-9----9-9------------------11-11----11-11-|

D----11-11---11-11------------------9-9----9-9-------------------|

A------------------7-7----7-7------------------9-9------9-9------|

E-9-9-----9-9--------------------7-7----7-7----------------------|

G---------------------9-9----9-9------------------11-11----11-11-|

D----11-11---11-11------------------9-9----9-9-------------------|

A------------------7-7----7-7------------------9-9------9-9------|

E-9-9-----9-9--------------------7-7----7-7----------------------|

G----11-11----11-11------14-14------14-14------9-9----9-9------16-16-|

D--------------------------------------------------------------------|

A-9-9------9-9------12-12------12-12-------7-7-----7-7----14-14------|

E--------------------------------------------------------------------|

G---------------------------------------------------------------------|

D---------------------------------------------------------------------|

A---9-7--------------9-7--------------9-7--------------9-7------------|

E-0-----9--xx9-xx9-0-----9--xx9-xx9-0-----9--xx9-xx9-0-----9--xx9-xx9-|

s s s s sss sss s s s s sss sss s s s s sss sss s s s s sss sss

G---------------------------------------------------------------------|

D---------------------------------------------------------------------|

A---9-7--------------9-7--------------9-7--------------9-7------------|

E-0-----9--xx9-xx9-0-----9--xx9-xx9-0-----9--xx9-xx9-0-----9--xx9-xx9-|

s s s s sss sss s s s sss sss s s s s sss sss s s s s sss sss

G---------------------9-9----9-9------------------11-11----11-11-|

D----11-11---11-11------------------9-9----9-9-------------------|

A------------------7-7----7-7------------------9-9------9-9------|

E-9-9-----9-9--------------------7-7----7-7----------------------|

G---------------------9-9----9-9------------------11-11----11-11-|

D----11-11---11-11------------------9-9----9-9-------------------|

A------------------7-7----7-7------------------9-9------9-9------|

E-9-9-----9-9--------------------7-7----7-7----------------------|

G---------------------9-9----9-9------------------11-11----11-11-|

D----11-11---11-11------------------9-9----9-9-------------------|

A------------------7-7----7-7------------------9-9------9-9------|

E-9-9-----9-9--------------------7-7----7-7----------------------|

G---------------------9-9----9-9------------------11-11----11-11-|

D----11-11---11-11------------------9-9----9-9-------------------|

A------------------7-7----7-7------------------9-9------9-9------|

E-9-9-----9-9--------------------7-7----7-7----------------------|

G---------|

D---------|

A---9-7---|

E-0-----9-|

s s s sAdded by tabs-database.com and our distinguished partners

Get this song at:  amazon.com sheetmusicplus.com

Share your thoughts

0 Comments found