Red Hot Chili Peppers

Red Hot Chili Peppers - Californication (with Bass N Guitar On Bass) bass tab

I love this song and I decided to learn to play with guitar in the verses:

Verse: (without guitar)

G-----9-9-7h9p7--------7-7----|-----9-9-7h9p7--------10-10-7-|

D-7-7-----------10---------10-|-7-7-----------10-------------|

A------------------8-8--------|------------------8-8---------|

E-----------------------------|------------------------------|

Verse: (with guitar [optional])

G-------16-17----------------|-------12-14-------|

D----14----14-14-12h14p12----|----------12-12----|

A-12----12----------------15-|----15----------15-|

E----------------------------|-13----13----------|

G-------16-17----------------|-------12-14-------|

D----14----14-14-12h14p12----|----------15-15-12-|

A-12----12----------------15-|----15-------------|

E----------------------------|-13----13----------|

Fill: (same for guitar and bass)

G-----5-----------------------7---|

D---5---5-----5-------3-----7---7-|

A-3---------5---5---3---3-5-------|

E---------3-------1---------------|

Pre-chorus:

G-----------------------------------------|---------------------------9-9-7------|

D-7-777-77-77-9-10------------10-9h10p9-5-|-7-777-77-77-9-10-------10-------10-9-|

A------------------8-888-88-8-------------|------------------8-888---------------|

E-----------------------------------------|--------------------------------------|

Chorus 1:

G-----------------------------|

D-----------------------------|

A-3-3-----5-5-----3-3-------5-|

E-----3-3-----5-5-----3-1-3---|

Chorus 2:

G---------------------------------------7-|--------------------------------|

D-----------------------------------77-7--|-----------------3-1------------|

A-3-3-----5-5-----3-3-------5-5-5-5---5---|-3-3-----5-5---------3--1-----5-|

E-----3-3-----5-5-----3-1-3---------------|-----3-3-----5-5----------1-3---|

Solo 1:

G----9------------|

D-------9--------|

A-7-------5-55-55/|

E-----------------|

Solo 2:

G-----------7-------------|

D-----9---7-------7-------|

A---9---5-------7-------7-|

E-7-----------5-----0-7---|

Order:

Verse x3

Fill x1

Verse x2

Fill x1

Bridge x3

Chorus 1 x1

Verse x2

Fill x1

Verse x2

Fill x1

Bridge x3

Chorus 2 x1

Solo 1 x2

Solo 2 x1

Solo 1 x2

Solo 2 x3

Verse x2

Fill x1

Bridge x3 (do a nice octave slide if you like on the A8)

Chorus 2 x1 (and let ring)

Brought to you by the BassMasta - http://www.tabs-database.com

Get this song at:  amazon.com sheetmusicplus.com

Share your thoughts

0 Comments found