Red Hot Chili Peppers

Red Hot Chili Peppers - Mellowship In Slinky B Major bass tab

Mellowship Slinky in B Major

Tabbed by kris + friend Matt

Regardless, this is a pop/ slap routine.

Intro (Riff 1) Standard paly

G |-----------------------------------------------------|

D |-----------------------------------------------------|

A |4-3-2--05-6-7-----5--7-7-5-7--4-3-2--05-6-7-----5---|

E |-------------0-0-7-7------------------------0-0-7-7--|

G |-----------------------------------------------------|

D |-----------------------------------------------------|

A |7-----5--4-3-2-05-6-7-----5--7-7-5-7--4-3-2--05-6-7-|

E |-0-0-7-7-------------0-0-7-7-------------------------|

G |------------|

D |------------|

A |-----5--7---|

E |0-0-7-7--0--|

Intro part 2 (Riff 2) Bring out the talent!

G |8--------------8---------------8---------|

D |-7---99--x99--x-7----99—-x77--x-7----99--|

A |--9--------------9---------------9-------|

E |---7--------------7---------------7------|

G |------8-------------8-----------------|

D |x99--x-7----9-8-7--x-7----------------|

A |--------9-------------9---------------|

E |---------7-------------7--------------|

Verse (Riff 3)

G |-----------8--------------8-------------8------------|

D |-99—-x99--x-7---99—-x97—-x-7---99—x99--x-7-----------|

A |-------------9--------------9-------------9----------|

E |--------------7--------------7-------------7---7-6-5-|

G |-8-------------8-------------8-------------8---------|

D |x-7---99—x99--x-7---99—x97--x-7---99—x99--x-7---9-8-7|

A |---9-------------9-------------9-------------9-------|

E |----7-------------7-------------7-------------7------|

G |-8-------------8-------------8-------------8---------|

D |x-7---99—x99--x-7---99—x97--x-7---99—x99--x-7--------|

A |---9-------------9-------------9-------------9-------|

E |----7-------------7-------------7-------------7------|

(Riff 4)

(I do the dog with Izabella)

G |-----------------------------------------------------|

D |-9-8-7------------------7-8--------------------------|

A |--------8/9-8-7-5-7-8/9------------------------------|

E |-----------------------------------------------------|

Chorus (Riff 5)

G |--------------------------------------------------|

D |------------------5-----------------------5-------|

A |5-7-5-7---5-7-5-7---7---4-5-4-5---4-5-4-5---4-----|

E |--------------------------------------------------|

G |--------------------------------------------------|

D |------------------5-------------------------------|

A |5-7-5-7---5-7-5-7---7---4-5-4-5-4--5-4-5-4--5-4-5-|

E |--------------------------------------------------|

Play Riff 5 again and then

(Riff 6)

G |---------|

D |-5x4x3---|

A |------x5-|

E |---------|

Guitar Solo Interlude

(Riff 6)

G |-----------------|

D |---------2--4----|

A |-/2---5--------2-|

E |-----------------| x4

(Riff 7)

G |--------------------------------------------------|

D |-/7x--5/7---------/7---5/7----7-------------------|

A |-----------9-8-7------------9x-8-7----------------|

E |-------------------------------------3/5--3-2-1-0-|

G |------------8------|

D |-------------7-----|

A |--------------9----|

E |-3/5---3-2-----7---|

Its all there and 99% correct to my knowlege. listen out for the order

and your on your way.

Brought to you by the BassMasta - http://www.tabs-database.com

Get this song at:  amazon.com sheetmusicplus.com

Share your thoughts

0 Comments found