Red Hot Chili Peppers

Red Hot Chili Peppers - Californication bass tab

Date: Sat, 30 Nov 2002 16:55:03 +0100 (CET)

From: Jan Björklund

Subject: r/red_hot_chili_peppers/californication.btab

Basstab by Jan Bjorklund, Finland;

jani_bjorklund@yahoo.se

You are welcome to request for basstabs!

Bienvenidos a pedirme transcripciones para el bajo!

TablEdited by Jan Bjorklund

Tuning : E A D G Time Signature: 4/4

| | | | | | | |

|------------9-------9---7h7-----|------------7-------7-----------|

|----7-----------------------10--|----10------------------10------|

|0-------------------------------|8-------------------------------|

|--------------------------------|--------------------------------|

| | | | | | | |

|------------9-------9---7h7-----|------------10------10--7-------|

|----7-----------------------10--|----10--------------------------|

|0-------0-----------------------|8-------------------------------|

|--------------------------------|--------------------------------|

| | | | | | | |

|------------9-------9---7h7-----|------------7-------7-----------|

|7---------------------------10--|----10------------------10------|

|0-------------------------------|8-------------------------------|

|--------------------------------|--------------------------------|

| | | | | | | |

|------------9-------9---7h7-----|------------10------10--7-------|

|----7-----------------------10--|--------------------------------|

|0-------------------------------|8-------------------------------|

|--------------------------------|--------------------------------|

| | | | | | | |

|------------9-------9---7h7-----|------------7-------7-----------|

|7---------------------------10--|----10------------------10------|

|0-------------------------------|8-------------------------------|

|--------------------------------|--------------------------------|

| | | | | | | |

|------------9-------9---7h7-----|------------10------10--7-------|

|7---------------------------10--|----10--------------------------|

|0-------------------------------|8-------------------------------|

|--------------------------------|--------------------------------|

| | | | | | | |

|--------------------------------|--------------------------------|

|10--------------12--------------|10------10------12------12------|

|----------------10--------------|8-------8-----------------------|

|8-------------------------------|----------------10------10------|

| | | | | | | |

|------------9-------9---7h7-----|------------7-------7-----------|

|----7-----------------------10--|----10------------------10------|

|0-------------------------------|8-------------------------------|

|--------------------------------|--------------------------------|

| | | | | | | |

|------------9-------9---7h7-----|10----------10------10--7-------|

|----7-----------------------10--|----10--------------------------|

|0-------------------------------|8---8---------------------------|

|--------------------------------|--------------------------------|

| | | | | | | |

|------------9-------9---7h7-----|------------7-------7-----------|

|----7-----------------------10--|----10------------------10------|

|0-------------------------------|8-----------8-------8-----------|

|--------------------------------|--------------------------------|

| | | | | | | |

|------------9-----------9p7-----|--------------------10--7-------|

|7-------7-------------------10--|----10------10------------------|

|--------------------------------|8-------------------------------|

|--------------------------------|--------------------------------|

| | | | | | | |

|--------------------------------|------------and so on...--------|

|10--------------12--------------|10------10------12------12------|

|----------------10--------------|8-------8-----------------------|

|8-------------------------------|----------------10------10------|

From: StingRay647@aol.com

From: "Brian K. Speck"

From: Petras

Date: Mon, 21 Jan 2002 01:19:16 -0500

Date: Tue, 2 Jul 2002 13:13:17 +0100

Intro & Verses & Bridge

see above btab by jan

End of Verse

G ------------------------------------------------

D ------------------------------------------------

A 3--3--3--3--------------------------5--5--5--5--

E ------------3--3--3--3--1--1--1--1--------------

Pre-Chorus

G ----------------------------

D ------------4-5-------------

A 7--7--7--7------3--3--3--3--

E ----------------------------

The end is bit tricky, but in fact Flea never plays this part same

and same again. Here's some fills he plays:

G ------#------#------

D 5-4-2-#5-4-5-#77754-

A ------#------#------

E ------#------#------

At the very end of the bridge he plays this fill (very fast indeed):

G -----------------

D -----------------

A 12-12-12-12-12-12

E -----------------

Chorus *

G ------------------------------------------------

D ------------------------------------------------

A 3--3--3--3--------------5--5--5--5--------------

E ------------3--3--3--3--------------5--5--5--5--

When the chorus ends simply make fade out (I marked that place with *)

Solo

G ------------------------------------------------

D ------------------------------------------------

A 7--7--7--7--7--7--7--7--3--3--3--3--3--3--3--3--

E ------------------------------------------------

G ------7-----------9-----------7-----------5-----

D ---7-----------9-----------7-----------5--------

A 5--------5--7--------7--5--------5--3--------3--

E ------------------------------------------------

That's about all. Here's the structure of the song:

4 x Intro

2 x Verse

End of verse

2 x Bridge

2 x Verse

End of verse

6 x Pre-Chorus

2 x Chorus

2 x Bridge

2 x Verse

End of verse

2 x Bridge

2 x Verse

End of verse

6 x Pre-Chorus

4 x Chorus

2 x Solo - Part I

1 x Solo - Part II

2 x Solo - Part I

3 x Solo - Part II

2 x Bridge

2 x Verse

End of verse

6 x Pre-Chorus

4 x Chorus

Get this song at:  amazon.com sheetmusicplus.com

Share your thoughts

0 Comments found