Red Hot Chili Peppers

Red Hot Chili Peppers - Teatro Jam guitar tab

Artist:Red Hot Chili Peppers

Album:B-Side to Californication and Around The World Singel

Song:Teatro Jam

Tabbed by Greenie 12

I think this song is in the key of E...and the way I see it John improvises

around a few riffs, and those have I tried to tab out. I think John uses his

chorus pedal and dist

e-|---------------------------------------|

B-|---------------------------------------|

G-|---------------------------------------|

D-|---------------5--7/9--9-9---9\7--7-7--|

A-|--7-7-7-7-7-7--------------------------|

E-|---------------------------------------|

e-|-----------------------------------------|

B-|-----------------------------------------|

G-|-----------------------------------------|

D-|---------------5--7/9--9-9--9/12--12-12--|

A-|--7-7-7-7-7-7----------------------------|

E-|-----------------------------------------|

e-|---------------------------------------------|

B-|---------------------------------------------|

G-|---------------------------------------------|

D-|---------------5--7/12--12-12-12--12\7--7-7--|

A-|--7-7-7-7-7-7--------------------------------|

E-|---------------------------------------------|

At the end he plays it an octave higher

e-|-----------------------------------------------|

B-|---------------8--10/12--12-12--12\10--10-10---|

G-|--9-9-9-9-9-9----------------------------------|

D-|-----------------------------------------------|

A-|-----------------------------------------------|

E-|-----------------------------------------------|

I hope you find this tab usefull

Get this song at:  amazon.com sheetmusicplus.com

Share your thoughts

0 Comments found