Red Hot Chili Peppers

Red Hot Chili Peppers - Readymade bass tab

Intro

G----------------------------------------------------------------------|

D----------5----------------5----------------5----------------------5--| x4

A--5-7-7-5---7-5-7--5-7-7-5---7-5-7--5-7-7-5---7-5-7--------3-5-5-7----|

E----------------------------------------------------3-5-5-------------|

Verse

G----------------------------------------------------------------------|

D----------5----------------5----------------5----------------------5--| x6

A--5-7-7-5---7-5-7--5-7-7-5---7-5-7--5-7-7-5---7-5-7--------3-5-5-7----|

E----------------------------------------------------3-5-5-------------|

Chorus

G----------------------------------------------------|

D----------------------------------------------------|

A----------------5-7-5--------------------------5-7--|

E-3--3-3--3-3--3-------7-5-5-5--5--5-5--5-5--55------|

G-----------------------------------------------------|

D-----------5---------------------------5-------------|

A-7-7---5-7------5-7----------7-7---5-7-----5-7--5----|

E-----7--------7-------7-5-3------7-------7--------7--|

G----------------------------------------------------|

D----------------------------------------------------|

A----------------5-7-5--------------------------5-7--|

E-3--3-3--3-3--3-------7-5-5-5--5--5-5--5-5--55------|

G----------------------------------------------------7----------|

D-----------5---------------------------5--------7h9---9-7-5----|

A-7-7---5-7------5-7----------7-7---5-7------5-7----------------|

E-----7--------7-------7-5-3------7--------7--------------------|

Verse

Chorus

Intro (Through Guitar solo)

Post Guitar Solo (weird voice bit)

G-----------------------------------------------------------|

D-----------------------------------------------------------|

A--5--4--2-------------------------5--4--2------------------|

E------------------5--4--2-------------------------5--4--2--|

Verse

Chorus

Get this song at:  amazon.com sheetmusicplus.com

Share your thoughts

0 Comments found