Red Hot Chili Peppers

Red Hot Chili Peppers - Death Of A Martian bass tab

Song: Death Of A Martian

Artist: Red Hot Chili Peppers

Album: Stadium Arcadium

Tabbed By: Marcos Prieto (marcrow_ps@yahoo.es)

Notation legend:

\ | /

3 -> triplet, 3 notes in 2 beats.

x -> mute.

\ -> slide up. \ It can be after or before the note,

like 1h3,

/ -> slide down. | but if there's no enought space it can be

h -> hammer on. | over or down, like G|-13-...

p -> pull off. / D|--h-...

~ -> let ring.

r -> rest.

S -> slap.

P -> pop.

+ + -> the rhythm of the song, generally 4x4. If there are 2

digits notes

or there's no enough space, I lengthen it,

from (+ + ...) to (+ · + · ...)

|·------·| -> repeat this a number of times, for example |·3-3-3-3·| x4

repeats 3-3-3-3 four times.

Intro:

Cm Bb

+ + + + + + + + + + + + + + + +

G||----8-----8-----|8-----8-----8---|----7----7------|7-----7-----7---|

D|·-----(10----1010|--10----1010--10|)---------------|----------------|

A|·----------------|----------------|----------------|----------------|

E||8-----8-----8-8-|--8-----8-8-----|6-6---6-6---6-6-|--6-6---6-6---6-|

Cm D# Dm

+ + + + + + + + + + + + + + + +

G|----8-----8-----|8-----8-----8---|----12----12--12|----10----10--10||

D|----------------|----------------|----------------|----------------·|

A|----------------|----------------|----------------|----------------·|

E|8-8---8-8---8-8-|--8-8---8-8---8/|1111--1111--11--|1010--1010--10--||

Verse:

Cm Bb

+ + + + + + + + + + + + + + + +

G||----8----8------|8-----8-----8---|----7----7------|7-----7-----7---|

D|·----------------|----------------|----------------|----------------|

A|·----------------|----------------|----------------|----------------|

E||8-8---8-8---8-8-|--8-----8-8---8-|6-6---6-6---6-6-|--6-6---6-6---6-|

Cm D# Dm

+ + + + + + + + + + + + + + + +

G|----8-----8-----|8-----8-----8---|----12----12--12|----10----10--10||

D|----------------|----------------|----------------|----------------·|

A|----------------|----------------|----------------|----------------·|

E|8-8---8-8---8-8-|--8-8---8-8---8/|1111--1111--11--|1010--1010--10--||

Pre-Chorus:

Gm

+ + + + + + + + + + + + + + + +

G|--1012--1012--10|12--1012--1012--|1012--1012--1012|--1012--10121212|

D|----------------|----------------|----------------|----------------|

A|10----10----10--|--10----10----10|----10----10----|10----10--------|

E|----------------|----------------|----------------|----------------|

Chorus 1:

Cm Bb

+ · + · + · + · + · + · + · + ·

G|--------------------------------|--------------------------------|

D|10----1010--10----1010--10--10--|8-----8-8---8-----8-8---8---8---|

A|--------------------------------|--------------------------------|

E|--------------------------------|--------------------------------|

G# Gm (5º)

+ · + · + · + · + · + · + · + ·

G|--------------------------------|----------------13----13--------|

D|--------------------------------|12----1212--------------1212----|

A|11----1111--11----1111--11--11--|--------------------------------|

E|--------------------------------|--------------------------------|

Cm Bb

+ · + · + · + · + · + · + · + ·

G|------------------1012--10--8---|--------------1012--10--8h108---|

D|10----1010--10------/-----------|8---8-8-8-------/-----------p-10|

A|--------------------------------|--------------------------------|

E|--------------------------------|--------------------------------|

F Gm

+ · + · + · + · + · + · + · + ·

G|--------------------------------|--------------------------------|

D|--------------------------------|--------------------------8-----|

A|8-----8-8---8-----8-8---8---8---|10----1010--10--------8h10--10--|

E|--------------------------------|--------------------------------|

Cm Bb

+ · + · + · + · + · + · + · + ·

G|----------------12------12------|------------12--10--8-----------|

D|10----1010--10------10------10--|8-----8-8---/-----------10--8---|

A|--------------------------------|--------------------------------|

E|--------------------------------|--------------------------------|

G# Gm (5º)

+ · + · + · + · + · + · + · + ·

G|--------------------------------|----------------13--131313------|

D|--------------------------------|12----1212------------------12--|

A|11----1111--11----1111--11--11--|--------------------------------|

E|--------------------------------|--------------------------------|

Cm Bb

+ · + · + · + · + · + · + · + ·

G|------------------1012--10--8---|----------------8---------------|

D|10----1010--10------/-----------|8---8-8-8---8-------10----------|

A|--------------------------------|--------------------------------|

E|--------------------------------|--------------------------------|

F Gm

+ · + · + · + · + · + · + · + ·

G|--------------------------------|--------------------------------|

D|--------------------------------|--------------------------------|

A|8-----8-8---8-----8-8---8---8---|10--10--10--10--10--10--10------|

E|--------------------------------|--------------------------------|

Verse.

Pre-Chorus:

Gm

+ + + + + + + + + + + + + + + +

G|--1012--1012--10|12--1012--1012--|1012--1012--1012|--1012--1012----|

D|----------------|----------------|----------------|----------------|

A|10----10----10--|--10----10----10|----10----10----|10----10--------|

E|----------------|----------------|----------------|----------------|

Chorus 2:

Cm Bb

+ · + · + · + · + · + · + · + ·

G|------------------------8-------|--------------------------------|

D|10----1010--10----1010------10--|8-----8-8---8-----8-8---8---8---|

A|--------------------------------|--------------------------------|

E|--------------------------------|--------------------------------|

G# Gm (5º)

+ · + · + · + · + · + · + · + ·

G|--------------------------------|--------------------------------|

D|--------------------------------|12----1212--12--12--13--12--12--|

A|11----1111--11----1111--11--11--|--------------------------------|

E|--------------------------------|--------------------------------|

Cm Bb

+ · + · + · + · + · + · + · + ·

G|------------12--10--8-------10--|----------------12--10--8h108---|

D|10----1010--/-----------10------|8---8-8-8-------/-----------p-10|

A|--------------------------------|--------------------------------|

E|--------------------------------|--------------------------------|

F Gm

+ · + · + · + · + · + · + · + ·

G|--------------------------------|----------------------------8---|

D|--------------------8-------10--|-------------------------810----|

A|8-----8-8---8-----------8-------|10----1010--10--10----810-h-----|

E|--------------------------------|-----------------------h--------|

Cm Bb

+ · + · + · + · + · + · + · + ·

G|----------------8h108-------8---|----------------8---------------|

D|10----1010--10------p---10------|8-----8-8---8h10----10--8---10--|

A|--------------------------------|--------------------------------|

E|--------------------------------|--------------------------------|

G# Gm (5º)

+ · + · + · + · + · + · + · + ·

G|--------------------------------|----------------13--------------|

D|--------------------------------|12----1212--1213----13--1213--12|

A|11--111111--11--111111--11--11--|--------------h-----------h-----|

E|--------------------------------|--------------------------------|

Cm Bb

+ · + · + · + · + · + · + · + ·

G|------------12--15--12--10--8---|------------12-----10---8-------|

D|10----1010----------------------|8-----8-8---/---------------10--|

A|--------------------------------|--------------------------------|

E|--------------------------------|--------------------------------|

F Gm

+ · + · + · + · + · + · + · + ·

G|--------------------------------|--------------------------------|

D|--------------------------------|--------------------------------|

A|8-------8---8-------8---8---8---|10---1010--10-------10--10------|

E|--------------------------------|--------------------------------|

Cm

+ · + · + · + · + · + · + · + ·

G|--------------------------------|--------------------------------|

D|--------------------------------|--------------------------------|

A|10----------10--10--10--10------|--------------------------------|

E|--------------------------------|8-------------------------------|

Ending:

(3:04)

Cm G# D#

+ · + · + · + · + · + · + · + ·

G|--------------------------------|--------------------------------|

D|----------------6---------------|--------------------------------|

A|--------------------------------|6---------------6---5---6-------|

E|8-------------------------------|----------------------------6---|

Cm G# D#

+ · + · + · + · + · + · + · + ·

G|--------------------------------|--------------------------------|

D|--------------------------------|----/---------------------------|

A|--------------8/11--------------|6--810--8---5---8---6---5-------|

E|8-------------------------------|--------------------------------|

Cm G# D#

+ · + · + · + · + · + · + · + ·

G|--------------------------------|--------------------------------|

D|--------------------------------|--------------------------------|

A|-------------8/11---------------|--------------------------------|

E|8-------------------------------|11--------------10--11--10\-8---|

Cm G# D#

+ · + · + · + · + · + · + · + ·

G|--------------------------------|----------1719--20--20--20\\\---|

D|--------------------------------|-----1720-----------------------|

A|--------------8/11--------------|/18----h------------------------|

E|8-------------------------------|--------------------------------|

Cm G# D#

+ · + · + · + · + · + · + · + ·

G|--------------------------------|--------------------------------|

D|--------------------------------|--------------------------------|

A|-------------8/11---------------|--------------------------------|

E|8-------------------------------|11-------------/13--11--10--11--|

Cm G# D#

+ · + · + · + · + · + · + · + ·

G|--------------------------------|--------------------------------|

D|--------------------------------|--------------------------------|

A|3----6-----5---------3----------|6---/8-----6----5----6----------|

E|----------------4----------4----|---------------------------6----|

\ | / \ | / \ | / \ | /

\ | / \ | / \ | / \ | /

3 3 3 3

Cm G# D#

+ · + · + · + · + · + · + · + ·

G|--------------------------------|--------------------------------|

D|--------------------------------|--------------------------------|

A|-------------8/11---------------|--------------------------------|

E|8-------------------------------|11--------------10--11--10--8---|

Cm G# D#

+ · + · + · + · + · + · + · + ·

G|--------------------------------|--------------------------------|

D|--------------------------------|--------------------------------|

A|-------------8/11---------------|--------------------------------|

E|8-------------------------------|11--10--8---11--13--11--10--11-*|

PM PM PM PM PM PM PM PM

* I wrote a Palm Mute, it sounds like a very low bass or a distortion,

or tombs X( . I'm not really sure about this notes.

Cm G# D#

+ · + · + · + · + · + · + · + ·

G|--------------------------------|--------------------------------|

D|--------------------------------|--------------------------------|

A|-------------8/11---------------|--------------------------------|

E|8-------------------------------|11--------------10--11--10-h8---|

Cm G# D#

+ · + · + · + · + · + · + · + ·

G|--------------------------------|--------------------------------|

D|------------------------------//|13----------13----------13------|

A|--------------------------------|----15--15------15--15------15\\|

E|8--------------4----------------|--------------------------------|

Cm G# D#

+ · + · + · + · + · + · + · + ·

G|--------------------------------|--------------------------------|

D|--------------------------------|--------------------------------|

A|-------------8/11---------------|--------------------------------|

E|8-------------------------------|11--------------10--11--10-/11--|

Cm G# D#

+ · + · + · + · + · + · + · + ·

G|------------8----/10-/12--------|12--108-108---------------------|

D|--------8h10--10----------------|/-----------10--8---------------|

A|----8h10------------------------|-------------------108----------|

E|8-------------------------------|----------------------11--10----|

Cm G# D#

+ · + · + · + · + · + · + · + ·

G|--------------------------------|--------------------------------|

D|--------------------------------|--------------------------------|

A|-------------8/11---------------|--------------------------------|

E|8-------------------------------|11--------------10--11--10------|

Cm G# D#

+ · + · + · + · + · + · + · + ·

G|--------------------------------|--------------------------------|

D|--------------------------------|--------------------------------|

A|--------------------------------|6---------------5---6---5---5---|

E|8---------------4---------------|--------------------------------|

Cm G# D#

+ · + · + · + · + · + · + · + ·

G|--------------------------------|--------------------------------|

D|--------------------------------|--------------------------------|

A|-------------8/11---------------|----------------/---------------|

E|8-------------------------------|11------------1113--11--10--11--|

Cm G# D#

+ · + · + · + · + · + · + · + ·

G|--------------------------------|--------------------------------|

D|--------------------------------|------------6---5---3-----------|

A|--------------------------------|6---5---3---------------6-------|

E|8---------------4---------------|--------------------------------|

Cm

+ · + · + · + · + · + · + · + ·

G|--------------------------------|--------------------------------|

D|--------------------------------|--------------------------------|

A|3~--------------3///////////////|15~-----------------------------|

E|--------------------------------|--------------------------------|

__ _ __ __ _____ _____ _____

/ | / | / | / `\ / ___/ / __ / ( __/

/ |/ | / /|| / /) / // / / // \ \

/ /| /|| / /^|| / /|| //___ / / // ___) )

/ / | / || / / || / / || / / / ^^/ / /

^^^^^^^^^^^^^^^^^^^^^^^^^^^^^^^^^^^^^^^^^^^^^^^^^

Get this song at:  amazon.com sheetmusicplus.com

Share your thoughts

0 Comments found