Red Hot Chili Peppers

Red Hot Chili Peppers - After Hours bass tab

#-----------------------------PLEASE NOTE-------------------------------------#

#This OLGA file is the author's own work and represents their interpretation #

#of the song. You may only use this file for private study, scholarship, or #

#research. Remember to view this file in Courier, or some other monospaced #

#font. See http://www.olga.net/faq/ for more information. #

#-----------------------------------------------------------------------------#

Subject: r/red_hot_chili_peppers/after_hours.crd

Author/Artist: Anthony Kiedis and John Frusciante

Title: After Hours

Transcribed by: Anthony Fenton

Email: afenton85@hotmail.com

This is the cover of the Velvet Underground's After Hours.

This is the tab for the way John Frusciante plays it in the vpro 1992

interview,

most of you have probably seen the video clip (go to jftab.com and download

it).

Heres the tab:

----------x----------------x-----------------x-----------------x--------------

----------3----------------6-----------------5-----------------4--------------

----------3----------------4-----------------3-----------------2--------------

----------3----------------5-----------------5-----------------3--------------

----------1----------------x-----------------3-----------------x--------------

----------x----------------3-----------------x-----------------1--------------

If you close ...

let the sun ...

------------x-------------------------------x---------------------------------

------------3-------------------------------3---------------------------------

------------3-------------------------------1---------------------------------

------------3-------------------------------3---------------------------------

------------1-------------------------------1---------------------------------

------------x-------------------------------x---------------------------------

all the people are laughing and theyre having such fun

--------x--------------------------------6------------------------------------

--------4--------------------------------7------------------------------------

--------3--------------------------------6------------------------------------

--------5--------------------------------8------------------------------------

--------6--------------------------------9------------------------------------

--------x--------------------------------x------------------------------------

I wish it could happen to meeeee

---------------x--------------------x-----------------------------------------

---------------3--------------------6-----------------------------------------

---------------3--------------------4-----------------------------------------

---------------3--------------------5-----------------------------------------

---------------1--------------------x-----------------------------------------

---------------x--------------------3-----------------------------------------

But if you close the door

-----x-----------------x--------------x---------x-----------------------------

-----5-----------------4--------------3---------6-----------------------------

-----3-----------------2--------------3---------4-----------------------------

-----5-----------------3--------------3---------5-----------------------------

-----3-----------------x--------------1---------x-----------------------------

-----x-----------------1--------------x---------3-----------------------------

I never have to see the day again

-----x--------------x-------------x-------------------------------------------

-----5--------------4-------------3-------------------------------------------

-----3--------------2-------------3-------------------------------------------

-----5--------------3-------------3-------------------------------------------

-----3--------------x-------------1-------------------------------------------

-----x--------------1-------------x-------------------------------------------

I never have to see the day again

E-mail me with your comments/corrections. However I'm 99.9% sure that this

tab

is correct.

Get this song at:  amazon.com sheetmusicplus.com

Share your thoughts

0 Comments found