Red Hot Chili Peppers

Red Hot Chili Peppers - I Could Have Lied Live Version bass tab

I Could Have Lied (Live)

>From UK Californication Single.

Tabbed by Rikki Strang

E-Mail:rikki@strang3.freeserve.co.uk

Intro(played by guitar but tabbed for bass):

G-----7---11---7---11----7---11--14-12-11-7

D-7-9---9----9---9-----9---9---------------

A------------------------------------------

E------------------------------------------

bass comes in at verse:

G---------------------------------------------

D---------------------------------------------

A-2-2--2-2--0-0--------2-2--2-2--0505054------

E----------------3-3---------------------5-3-3

G-----------------------------------------0-12-11--

D------------------------------------------------12

A-2-2--2-2--0-0--------2-2--2-2--0-0---------------

E----------------3-3------------------3-3----------

G-------------------

D-------------------

A-2-2--2-2--0-0----- x4

E----------------3-3

G--------------------------------

D--------------------------------

A-7-7-710-10-10-10/5-5-5-5-3-3-3

E--------------------------------

Break:

G-----------------------------------

D------------------75757575755555555

A-7575757575757575------------------

E-----------------------------------

1st Solo:

G------------------------------------------

D------------------------------------------

A-------3-57-7/------3-5-3----------------

E-5-3-5-----------3-5------5-3-5-3535353535

G--------------------------------------

D------------5-7-5---5-7575757575555555

A--------5-7-------7-------------------

E-3535---------------------------------

G------------------------5-----------

D--------5-7-5-------5-7---7-5-------

A------7-------7-5-7-----------7-5-7/

E-535--------------------------------

G-------------------

D-------------------

A-2-2--2-2--0-0----- x4

E----------------3-3

Back into Verse:

G-----------------------------------------0-12-11---

D-------------------------------------------------12

A-2-2--2-2--0-0--------2-2--2-2--0-0----------------

E----------------3-3------------------3-3-----------

G-------------------

D-------------------

A-2-2--2-2--0-0----- x2

E----------------3-3

Chorus:

G---------------------------

D---------------------------

A-7-7-710-10-10/5-5-5-3-3-3

E---------------------------

G---------------------------------------------

D---------------------------------------------

A-7-7-710-10-10/5-5-515-15-15-15-15-15-15-15

E---------------------------------------------

G---------------------------

D---------------------------

A-7-7-710-10-10/5-5-5-3-3-3 repeat

E---------------------------

Then:

G----------------------------

D----------------------------

A-7-7~---10-10~---5-5~---3-3~

E----------------------------

Final Solo:

G-----9----------------12-12-------- _

D---9---99-0-----12-12-------12-12-0 |

A-7-----------10-------------------- |

E----------------------------------- |

| repeat

G------77-----------55----- |

D---77----77-0---55----55-0 |

A-5------------3----------- |

E-------------------------- -

end on:

G---

D---

A-7~

E---

Get this song at:  amazon.com sheetmusicplus.com

Share your thoughts

0 Comments found