Red Hot Chili Peppers

Red Hot Chili Peppers - Fortune Faded bass tab

Intro:

G:-----------------------------------------------------------------

D:----------------------------------4-4-4-4-4-4-4-4-4-4-4-4-4-4-4-4

A:-----------------------------------------------------------------

E:-2-2-2-2-2-2-2-2-2-2-2-2-2-2-2-2---------------------------------

G:------------------------------------------------

D:-11-11-11-11-11-11-11-11-11-11-11-11-11-11-11-11

A:------------------------------------------------

E:------------------------------------------------

G:-11-11-11-11-11-11-11-11-11-11-11-11-11-11-11-11

D:------------------------------------------------

A:------------------------------------------------

E:------------------------------------------------

Verse:

G:-------------------------------------------------------

D:-------------------------------------------------------

A:-------------------------------------------------------

E:7---7------------7---7------------7---7-----------7---7

G:-----------------------------------------------------------------

D:-----------------------------------------------------------------

A:-5-----5-----5-----5-----5---------------------------------------

E:----------------------------------5-5-5-5-----5-5-5-5-----3-3-3-3 X7!!!!

Chorus

G:---------------------7------------0-----0-0---0-----0-0---0----

D:-7-----7-7---7-------------7----------------------------------7

A:---------------------------------------------------------------

E:---------------------------------------------------------------

G:---------------------------------------------------------------

D:-9-----9-9---9-----9-9---9--------------------0-----------0---0

A:-----------------------------9--------7---------------7--------

E:---------------------------------------------------------------

G:---------------------7------------0-----0-0---0-----0-0---0----

D:-7-----7-7---7-------------7----------------------------------7

A:---------------------------------------------------------------

E:---------------------------------------------------------------

G:-----------------------------------------------

D:-9-----9-9---9-------9---9---9--------9---9---9

A:-----------------------------------------------

E:-----------------------------------------------

Interlude:

G:-------------------------------------------------------

D:-------------------------------------------------------

A:-------------------------------------------------------

E:7---7------------7---7------------7---7-----------7---7

G:-----------------------------------------------------------------

D:-----------------------------------------------------------------

A:-5-----5-----5-----5-----5---------------------------------------

E:----------------------------------5-5-5-5-----5-5-5-5-----3-3-3-3 X4!!!

Chorus

G:---------------------7------------0-----0-0---0-----0-0---0----

D:-7-----7-7---7-------------7----------------------------------7

A:---------------------------------------------------------------

E:---------------------------------------------------------------

G:---------------------------------------------------------------

D:-9-----9-9---9-----9-9---9--------------------0-----------0---0

A:-----------------------------9--------7---------------7--------

E:---------------------------------------------------------------

G:---------------------7------------0-----0-0---0-----0-0---0----

D:-7-----7-7---7-------------7----------------------------------7

A:---------------------------------------------------------------

E:---------------------------------------------------------------

G:-----------------------------------------------

D:-9-----9-9---9-------9---9---9--------9---9---9

A:-----------------------------------------------

E:----------------------------------------------- X4!!!

Outro:

G:------------------------------

D:-9-----9-9---9-------9---9---9

A:------------------------------

E:------------------------------ Fade at last 9

Get this song at:  amazon.com sheetmusicplus.com

Share your thoughts

0 Comments found