Red Hot Chili Peppers

Red Hot Chili Peppers - Hey bass tab

This song was really hard to figure out because of the weird sound

of two low notes being played at one time, especially in the chorus

riff.

Verse:

G:-12--12-12--12-12-----12--12-12--12-12--12-12-----12-12-12-12--------------------------

D:-10--13-----13---------------10--13-----13---------------------------------------------

A:--------13-----11--11-11--13--------13-----11--11-10-11-10-13--------------------------

E:---------------------------------------------------------------------------------------

Chorus:

G:-----------12--12-12--12-----------12--12-12--12---------------------------------------

D:---------------------------------------------------------------------------------------

A:-3--5----8---------------3--5----8-----------------------------------------------------

E:-3--3-6----13--13-11--11-3--3-6----13--13-11--11---------------------------------------

Bridge:

G:---10-----10-------10------10-------------------------------------------10-------------

D:------------------------10----10-----------8-------------------------------------------

A:-8----8-8----8-8-8----8----------6-6-6-6-6---6-6-6-4-4-4-4-4-4-4-4-4-------------------

E:----------------------------------------------------------------------4-----4-4-4-4-6-6

G:---10-----------------------10-----10--------10---------10-----------------------------

D:------------------------------------------10----10---10----10--------------------------

A:--------------------------8----8-8----8-8----------8----------6-6-6-6-6-6-6-6-6--------

E:-4----4-4-4-4-6-6-6-6-6-6--------------------------------------------------------------

G:---------------------------------------------------------------------------------------

D:---------------------------------------------------------------------------------------

A:-4-4-4-4-4-4-4-4-4---------------------------------------------------------------------

E:-------------------4-4-4-4-4-4-4-4-4-6-6-6-6-6-6-6-6-6---------------------------------

For the guitar solo, play the verse riff.

Outro: Play the verse riff, then do this:

G:-12------------------------------------------------------------------------------------

D:-10-let-ring---------------------------------------------------------------------------

A:---------------------------------------------------------------------------------------

E:---------------------------------------------------------------------------------------

If you have any comments or corrections, please tell me. I would

like to know what I did wrong. Especially tell me what I did wrong

if you rate this anything lower than a 5, because I hate it whenpeople

rate my tabs low but don't leave an explanation why. Even

I'm not quite sure if this is completely accurate. Thanks, and

enjoy the tab!!!

Get this song at:  amazon.com sheetmusicplus.com

Share your thoughts

0 Comments found