Red Hot Chili Peppers

Red Hot Chili Peppers - Snow Hey Oh Bass guitar tab

G#m B G#m B

+ + + + + + + + + + + + + + + +

G|----------------|----------------|----------------|----------------|

D|----------------|----------------|----------------|----------------|

A|------467-------|------679-------|------467-------|------679-------|

E|4---------------|7---------------|4---------------|7-----------7---|

G#m B G#m B

+ + + + + + + + + + + + + + + +

G|----------------|----------------|----------------|----------------|

D|----------------|----------------|----------------|------------6\\4-|

A|------467-------|------679-------|------467-------|------679-------|

E|4---------------|7---------------|4---------------|7---------------|

G#m B G#m B

+ + + + + + + + + + + + + + + +

G|----------------|----------------|----------------|----------------|

D|----------------|----------------|----------------|----------------|

A|------467-------|------679-------|------467-------|------679-------|

E|4---------------|7---------------|4---------------|7-----------7-6-|

G#m B G#m B

+ + + + + + + + + + + + + + + +

G|----------------|----------------|----------------|----------------|

D|----------------|----------------|----------------|----------------|

A|----4-6-7---6-4-|----6-7-9-------|----4-6-7---6-4-|----------------|

E|4---------------|7-----------7-6-|4---------------|7---6-4-2---2---| x2

G#m B G#m B

+ + + + + + + + + + + + + + + +

G|----------------|----------------|----------------|----------------|

D|----------------|----------------|----------------|----------------|

A|------467-------|------679-------|------467-------|------679-------|

E|4---------------|7---------------|4---------------|7-----------x6--|

G#m B G#m B

+ + + + + + + + + + + + + + + +

G|----------------|----------------|----------------|----------------|

D|----------------|----------------|----------------|----------------|

A|------467-------|------679-------|------467-------|------679--/11\\-|

E|4---------------|7---------------|4---------------|7---------------|

G#m B G#m B

+ + + + + + + + + + + + + + + +

G|----------------|----------------|----------------|----------------|

D|----------------|----------------|----------------|----------------|

A|----4-6-7---6-4-|----6-7-9-------|----4-6-7---6-4-|----------------|

E|4---------------|7-----------7-6-|4---------------|7---6-4-2--x2-2-|

G#m B G#m B

+ + + + + + + + + + + + + + + +

G|----------------|----------------|----------------|----------------|

D|----------------|----------------|----------------|----------------|

A|----4-6-7---6-4-|----6-7-9-------|----4-6-7---6-4-|----------------|

E|4---------------|7-----------7-6-|4---------------|7---6-4-2---2---|

PRECHORUS:

E G#m

+ + + + + + + + + + + + + + + +

G|----------------|----------------|----------------|----------------|

D|----------------|----------------|----6-------6---|----6-----------|

A|----7-------7---|----7-------9---|----------------|------------9---|

E|----------------|----------------|----------------|----------------|

E

+ + + + + + + +

G|----------------|----------------|

D|----------------|----------------|

A|----7-------7---|----7--77777777-|

E|----------------|----------------|

CHORUS x4 (with End 1, 1, 2, 3):

B F#m

+ + + + + + + +

G||11--11--11--x---1111111111--x---|6---6---6---x---6-6-6-6-6---x---|

D|.9---9---9---x---9-9-9-9-9---x---|4---4---4---x---4-4-4-4-4---x---|

A|.--------------------------------|--------------------------------|

E||--------------------------------|--------------------------------|

____________ End 1 ____________

C#m \\

+ + + + + + + +

G|13--13--13--x---1313131313--x---|13--13--13--x---13131313131313x-||

D|11--11--11--x---1111111111--x---|11--11--11--x---11111111111111x-.|

A|--------------------------------|--------------------------------.|

E|--------------------------------|--------------------------------||

___________ End 2 _____________ ___________ End 3 _____________

\\ \\

+ + + + + + + +

G|1313131313--x---1313--13131313--| G|1313131313--x---1313--1313131313|

D|1111111111--x---1111--11111111--| D|1111111111--x---1111--1111111111|

A|--------------------------------| A|--------------------------------|

E|--------------------------------| E|--------------------------------|

___________ End 4 _____________ ___________ End 5 _____________

\\ \\

+ + + + + + + +

G|13--13--13--x---1313--13131313--| G|13--13--13--x---1313131313------|

D|11--11--11--x---1111--11111111--| D|11--11--11--x---1111111111------|

A|--------------------------------| A|--------------------------------|

E|--------------------------------| E|--------------------------------|

VERSO 3:

G#m B G#m B

+ + + + + + + + + + + + + + + +

G|----------------|----------------|----------------|----------------|

D|----------------|----------------|----------------|----------------|

A|------467-------|------679-------|------467-------|------679-------|

E|4---------------|7---------------|4---------------|7-----------7---|

G#m B G#m B

+ + + + + + + + + + + + + + + +

G|----------------|----------------|----------------|----------------|

D|----------------|----------------|----------------|-----------x6-6-|

A|------467-------|------679-------|------467-------|------679-------|

E|4---------------|7---------------|4---------------|7---------------|

G#m B G#m B

+ + + + + + + + + + + + + + + +

G|----------------|----------------|----------------|----------------|

D|----------------|----------------|----------------|----------------|

A|------467-------|------679-------|------467-------|------679-------|

E|4---------------|7---------------|4---------------|7-----------764-|

G#m B G#m B

+ + + + + + + + + + + + + + + +

G|----------------|----------------|----------------|----------------|

D|----------------|----------------|----------------|----------------|

A|----4-6-7---6-4-|----6-7-9-------|----4-6-7---6-4-|----------------|

E|4---------------|7-----------7-6-|4---------------|7---6-4-2--x2-2-|

G#m B G#m B

+ + + + + + + + + + + + + + + +

G|----------------|----------------|----------------|----------------|

D|----------------|----------------|----------------|----------------|

A|----4-6-7---6-4-|----6-7-9-------|----4-6-7---6-4-|----------------|

E|4---------------|7-----------7-6-|4---------------|7---6-4-2---2---|

PRECHORUS:

E G#m

+ + + + + + + + + + + + + + + +

G|----------------|----------------|----------------|----------------|

D|----------------|----------------|----6-------6---|----6-----------|

A|----7-------7---|----7-------9---|----------------|------------9---|

E|----------------|----------------|----------------|----------------|

E

+ + + + + + + +

G|----------------|----------------|

D|----------------|----------------|

A|----7-------7---|----7-------7---|

E|----------------|----------------|

CHORUS -> until the end of the song, alternating the Ends,

and finishing with:

B F#m

+ + + + + + + +

G|11--11--11--x---1111111111--x---|6---6---6---x---6-6-6-6-6---x---|

D|9---9---9---x---9-9-9-9-9---x---|4---4---4---x---4-4-4-4-4---x---|

A|--------------------------------|--------------------------------|

E|--------------------------------|--------------------------------|

C#m

+ + + +

G|----------------|

D|----------------|

A|4~--------------|

E|----------------|

Added by tabs-database.com and our distinguished partners

Get this song at:  amazon.com sheetmusicplus.com

Share your thoughts

0 Comments found