Red Hot Chili Peppers

Red Hot Chili Peppers - Californication (5 String) bass tab

Intro

G|-----------------------------|-------------------------------|

D|-----------------------------|-------------------------------|

A|------7-7-5h7----------5-5---|------7-7-5h7-----------5-5----|

E|---5----------8------------7-|-5-5----------8-------------7--|

B|--------------------6--------|---------------------6---------|

Verse 1

(2x)

G|-----------------------------|-------------------------------|

D|-----------------------------|-------------------------------|

A|------7-7-5h7----------5-5---|------7-7-5h7-----------5-5----|

E|---5----------8------------7-|-5-5----------8-------------7--|

B|--------------------6--------|---------------------6---------|

G|-----------------------------|

D|-----------------------------|

A|--3-3-----------5------------|

E|------3-3-1-1-3--------------|

B|-----------------------------|

(2x)

G|-----------------------------|-------------------------------|

D|-----------------------------|-------------------------------|

A|------7-7-5h7----------5-5---|------7-7-5h7-----------5-5----|

E|---5----------8------------7-|-5-5----------8-------------7--|

B|--------------------6--------|---------------------6---------|

G|-----------------------------|

D|-----------------------------|

A|--3-3-----------5------------|

E|------3-3-1-1-3--------------|

B|-----------------------------|

Prechorus

G|-----------------|-----------------|-----------------|

D|-----------------|-----------------|-----------------|

A|-----------------|-----------3-2---|-----------------|

E|5-555-55-55-7-6--|1-111-11-1-----3-|5-555-55-55-7-6--|

B|-----------------|-----------------|-----------------|

G|----------------|

D|----------------|

A|-------5/7-5-3--|

E|-1-111---------1|

B|----------------|

(X3)

G|-----------------|-----------------|

D|-----------------|-----------------|

A|-----------------|-----------3-2---|

E|5-555-55-55-7-6--|1-111-11-1-----3-|

B|-----------------|-----------------|

G|-----------------|-----------------|

D|-----------------|-----------------|

A|-----------------|-----------------|

E|5-555-55-55-7-6--|1-111-11-1111111-|

B|-----------------|-----------------|

Chorus 1

G|---------------------|---------------|

D|---------------------|---------------|

A|--3-3-------5-5------|-3-3--------5~-|

E|-------3-3-------5-5-|------3-1-3----|

B|---------------------|---------------|

Verse 2 is the same as Verse 1

Prechorus

G|-----------------|-----------------|-----------------|

D|-----------------|-----------------|-----------------|

A|-----------------|-----------3-2---|-----------------|

E|5-555-55-55-7-6--|1-111-11-1-----3-|5-555-55-55-7-6--|

B|-----------------|-----------------|-----------------|

G|----------------|

D|----------------|

A|-------5/7-5-3--|

E|-1-111---------1|

B|----------------|

(X3)

G|-----------------|-----------------|

D|-----------------|-----------------|

A|-----------------|-----------3-2---|

E|5-555-55-55-7-6--|1-111-11-1-----3-|

B|-----------------|-----------------|

G|-----------------|-----------------|

D|-----------------|-----------------|

A|-----------------|-----------------|

E|5-555-55-55-7-6--|1-111-11-1111111-|

B|-----------------|-----------------|

Chorus 2

G|---------------------|-----------------------7---7-7-|

D|---------------------|-------------------------------|

A|-3-3-------5-5-------|3-3---------5--5-5-5-5---5-----|

E|------3-3-------5-5--|-----3-1-3---------------------|

B|---------------------|-------------------------------|

G|---------------------|-------------------|

D|---------------------|----3-1------------|

A|-3-3-------5-5-------|3-3-----3-1-----5~-|

E|------3-3-------5-5--|------------3-1----|

B|---------------------|-------------------|

Interlude:

G|----14---13---11-----14--------14-|-----------7-----------9-|

D|----------------------------------|-----9---7-------7---9---|

A|--9----9----9---------------------|---9---5-------7---7-----|

E|------------------10-----10-10----|-7-----------5-----------|

B|----------------------------------|-------------------------|

G|---14---13---11-----14--------14--|

D|----------------------------------|

A|--9----9----9---------------------|

E|------------------10-----10-10----|

B|------------------------------------|

(3x)

G|--------------7---------------9-----|

D|-----9-----7---7-----7-----9----9---|

A|----9---9-5---------7---7-7---------|

E|--7---------------5-----------------|

B|------------------------------------|

Prechorus 3 the same as 2

Chorus 3 the same as 2

Outro on A

by Pysio

Get this song at:  amazon.com sheetmusicplus.com

Share your thoughts

0 Comments found