Red Hot Chili Peppers

Purple Stain(complete) Bass Tabs



More from Red Hot Chili Peppers

Red Hot Chili Peppers Tabs
Red Hot Chili Peppers Chords
Red Hot Chili Peppers Bass
Red Hot Chili Peppers Lyrics




G :----------------|----------------|--------------------|
D :----------------|----------------|14\-----------------|
A :----------------|----------------|--------------------|
E :----------------|------------0-*-|-----0-12-*-----0-*-|


G :-----------------|--------------------|-----------------|
D :-----------------|14\-----------------|-----------------|
A :-----------------|--------------------|-----------------|
E :--0-12-0-3---0-*-|-----0-12-*-----0-*-|--0-12-0-2-3-0-*-|


G :--------------------|-----------------|--------------------|
D :14\-----------------|-----------------|14\-----------------|
A :--------------------|-----------------|--------------------|
E :-----0-12-*-----0-*-|--0-10-9-7-3-0-*-|-----0-12-*-----0-*-|


G :-------------------|--------------------|--------------------|
D :--------------5-7*7|*----5-7*7*----5-7*7|*----5-7*7*----5-7*7|
A :-----------*7-*----|---7-*-------7-*----|---7-*-------7-*----|
E :--0-12-0-3---------|--------------------|--------------------|


G :--------------------|---5*--------------|--------------------|
D :*----5-7*7*----5-7*7|*----7-5-*----5-7*7|*----5-7*7*----5-7*7|
A :---7-*-------7-*----|------------7-*----|---7-*-------7-*----|
E :--------------------|-------------------|--------------------|


G :---5*------------|--------------------|-----------------|
D :*----7-5-*-------|14\-----------------|-----------------|
A :-----------------|--------------------|-----------------|
E :-------------0-*-|-----0-12-*-----0-*-|--0-12-0-3-*-0-*-|


G :--------------------|-----------------|--------------------|
D :14\-----------------|-----------------|14\-----------------|
A :--------------------|---------4-5-----|--------------------|
E :-----0-12-*-----0-*-|--0-12-0-----0-*-|-----0-12-*-----0-*-|


G :-----------------|--------------------|-------------------|
D :-----------------|14\-----------------|--------------5-7*7|
A :-----------------|--------------------|-----------*7-*----|
E :--0-10-9-7-3-0-*-|-----0-12-*-----0-*-|--0-12-0-3---------|


G :--------------------|---5*--------------|--------------------|
D :*----5-7*7*----5-7*7|*----7-5-*----5-7*7|*----5-7*7*----5-7*7|
A :---7-*-------7-*----|------------7-*----|---7-*-------7-*----|
E :--------------------|-------------------|--------------------|


G :---5*--------------|--------------------|---5*--------------|
D :*----7-5-*----5-7*7|*----5-7*7*----5-7*7|*----7-5-*----5-7*7|
A :------------7-*----|---7-*-------7-*----|------------7-*----|
E :-------------------|--------------------|-------------------|


G :--------------------|---5*------------|--------------------|
D :*----5-7*7*----5-7*7|*----7-5-*-------|--------------------|
A :---7-*-------7-*----|-----------------|-----5-7---7--------|
E :--------------------|-------------3-3-|5-/7-----0----0-3-3-|


G :-------------------|--------------------|-----------12-14-12-----|
D :-------------5-----|--------------------|------------------------|
A :-----5-7---7-------|-----5-7---7--------|-----5-7----------------|
E :5-/7-----0-----3-3-|5-/7-----0----0-3-3-|5-/7-----0----------3-3-|


G :--------------------|-------------------|--------------------|
D :--------------------|-------------------|--------------------|
A :-----5-7---7--------|-----5-7---7-5-----|-----5-7---7--------|
E :5-/7-----0----0-3-3-|5-/7-----0-----3-3-|5-/7-----0----0-3-3-|


G :-------------------|--------------------|--------------------|
D :-------------------|14\-----------------|14\-----------------|
A :-----5-7---7-5-----|--------------------|--------------------|
E :5-/7-----0-----0---|-----0-12-*-----0-*-|-----0-12-*-----0-*-|


G :-----------------|--------------------|-----------------|
D :-----------------|14\-----------------|-----------------|
A :-----------------|--------------------|-----------------|
E :--0-12-0-3-*-0-*-|-----0-12-*-----0-*-|--0-12-0-2-3-0-*-|


G :--------------------|-----------------|--------------------|
D :14\-----------------|-----------------|14\-----------------|
A :--------------------|-----------------|--------------------|
E :-----0-12-*-----0-*-|--0-10-9-7-3-0-*-|-----0-12-*-----0-*-|


G :-------------------|--------------------|--------------------|
D :--------------5-7*7|*----5-7*7*----5-7*7|*----5-7*7*----5-7*7|
A :-----------*7-*----|---7-*-------7-*----|---7-*-------7-*----|
E :--0-12-0-3---------|--------------------|--------------------|


G :--------------------|---5*--------------|--------------------|
D :*----5-7*7*----5-7*7|*----7-5-*----5-7*7|*----5-7*7*----5-7*7|
A :---7-*-------7-*----|------------7-*----|---7-*-------7-*----|
E :--------------------|-------------------|--------------------|


G :---5*--------------|--------------------|---5*--------------|
D :*----7-5-*----5-7*7|*----5-7*7*----5-7*7|*----7-5-*----5-7*7|
A :------------7-*----|---7-*-------7-*----|------------7-*----|
E :-------------------|--------------------|-------------------|


G :--------------------|---5*------------|--------------------|
D :*----5-7*7*----5-7*7|*----7-5-*-------|--------------------|
A :---7-*-------7-*----|-----------------|-----5-7---7--------|
E :--------------------|-------------3-3-|5-/7-----0----0-3-3-|


G :-------------------|--------------------|-----------12-14-12-----|
D :-------------5-----|--------------------|------------------------|
A :-----5-7---7-------|-----5-7---7--------|-----5-7----------------|
E :5-/7-----0-----3-3-|5-/7-----0----0-3-3-|5-/7-----0----------3-3-|


G :--------------------|-------------------|--------------------|
D :--------------------|-------------------|--------------------|
A :-----5-7---7--------|-----5-7---7-5-----|-----5-7---7--------|
E :5-/7-----0----0-3-3-|5-/7-----0-----3-3-|5-/7-----0----0-3-3-|


G :-----------------------|-----------------------------------|
D :------------------14---|14----14----14-14----12-------14---|
A :-----5-7---7-5---------|------------------14----14---------|
E :5-/7-----0-----12----12|---12----12----------------12----12|


G :-----------------------------------|-----------------------------------|
D :14----14----14-14----12-------14---|14----14----14-14----12-------14---|
A :------------------14----14---------|------------------14----14---------|
E :---12----12----------------12----12|---12----12----------------12----12|


G :-----------------------------------|-----------------------------------|
D :14----14----14-14----12-------14---|14----14----14-14----12-------14---|
A :------------------14----14---------|------------------14----14---------|
E :---12----12----------------12----12|---12----12----------------12----12|


G :-----------------------------------|-----------------------------------|
D :14----14----14-14----12-------14---|14----14----14-14----12-------14---|
A :------------------14----14---------|------------------14----14---------|
E :---12----12----------------12----12|---12----12----------------12----12|


G :-----------------------------------|-----------------------------------|
D :14----14----14-14----12-------14---|14----14----14-14----12-------14---|
A :------------------14----14---------|------------------14----14---------|
E :---12----12----------------12----12|---12----12----------------12----12|


G :-----------------------------------|-----------------------------------|
D :14----14----14-14----12-------14---|14----14----14-14----12-------14---|
A :------------------14----14---------|------------------14----14---------|
E :---12----12----------------12----12|---12----12----------------12----12|


G :-----------------------------------|-----------------------------------|
D :14----14----14-14----12-------14---|14----14----14-14----12-------14---|
A :------------------14----14---------|------------------14----14---------|
E :---12----12----------------12----12|---12----12----------------12----12|


G :-----------------------------------|-----------------------------------|
D :14----14----14-14----12-------14---|14----14----14-14----12-------14---|
A :------------------14----14---------|------------------14----14---------|
E :---12----12----------------12----12|---12----12----------------12----12|


G :-----------------------------------|-----------------------------------|
D :14----14----14-14----12-------14---|14----14----14-14----12-------14---|
A :------------------14----14---------|------------------14----14---------|
E :---12----12----------------12----12|---12----12----------------12----12|


G :-----------------------------------|-----------------------------------|
D :14----14----14-14----12-------14---|14----14----14-14----12-------14---|
A :------------------14----14---------|------------------14----14---------|
E :---12----12----------------12----12|---12----12----------------12----12|


G :-----------------------------------|-----------------------------------|
D :14----14----14-14----12-------14---|14----14----14-14----12-------14---|
A :------------------14----14---------|------------------14----14---------|
E :---12----12----------------12----12|---12----12----------------12----12|


G :-----------------------------------|-----------------------------------|
D :14----14----14-14----12-------14---|14----14----14-14----12-------14---|
A :------------------14----14---------|------------------14----14---------|
E :---12----12----------------12----12|---12----12----------------12----12|


G :-----------------------------------|-----------------------------------|
D :14----14----14-14----12-------14---|14----14----14-14----12-------14---|
A :------------------14----14---------|------------------14----14---------|
E :---12----12----------------12----12|---12----12----------------12----12|


G :-----------------------------------|-----------------------------------|
D :14----14----14-14----12-------14---|14----14----14-14----12-------14---|
A :------------------14----14---------|------------------14----14---------|
E :---12----12----------------12----12|---12----12----------------12----12|


G :-----------------------------------|-----------------------------------|
D :14----14----14-14----12-------14---|14----14----14-14----12-------14---|
A :------------------14----14---------|------------------14----14---------|
E :---12----12----------------12----12|---12----12----------------12----12|


G :-----------------------------------|-----------------------------------|
D :14----14----14-14----12-------14---|14----14----14-14----12-------14---|
A :------------------14----14---------|------------------14----14---------|
E :---12----12----------------12----12|---12----12----------------12----12|


G :--------------------|
D :14----14-----------*|
A :--------------------|
E :---12---------------|



Get this song at amazon.com      Ebay     Ringtones Ringtones  


Learn to play: Songwriting, Piano, Harmonica, Guitar
More Red Hot Chili Peppers lyrics available at Muzikum

Related Red Hot Chili Peppers Bass Tabs

Backwoods3 bass
Dani California Bass Tab (formatted For Guitar Pro) bass
Fire bass
Arpeggiating bass
F U bass
Californication (100% Correct!) bass
Ethiopia bass
21st Century bass
Warm Tape bass
Tell Me Baby (10000% Correct) bass
Throw Away Your Television bass
Salute To Kareem bass
Why Dont You Love Me bass
American Ghost Dance bass
Breaking The Girl (Version 2) bass
If You Want Me To Stay bass
Californication (perfect) bass
Sexy Mexican Maid bass
Baby Appeal bass
Easily With Triads bass


Guitar Tabs









All tabs are property and copyright of their owners. All tabs provided for educational purposes only. Privacy Policy, DMCA