Red Hot Chili Peppers

Give It Away(correct) Bass Tabs



More from Red Hot Chili Peppers

Red Hot Chili Peppers Tabs
Red Hot Chili Peppers Chords
Red Hot Chili Peppers Bass
Red Hot Chili Peppers Lyrics




Artist : Red Hot Chili Peppers
Song : Give it Away
Album : BloodSugarSexMagik

T = Slap
P = Pluck

Intro :
G:--------------------------------|
D:--------------------------------|
A:--------------------------------|
E:----6/19------5/17------------|
T T

Main Riff: Verse
G:----------------12/-------------|--------------12/----------------|
D:--------/14---------------------|---------/14---------------------|
A:-0---X-----------------0-3-0-3--|-0---X-----------------X-0-3-----|
E:--------------------------------|---------------------------------|
T--------] P T-----] T---------] P T----]

G:-------------12/----------------|--------------12/----------------|
D:--------/14---------------------|---------/14---------------------|
A:-0---X------------X-0-3-X-0-3---|-0---X-----------------X-0-3-----|
E:--------------------------------|---------------------------------|
T--------] P T---------] T---------] P T----]


Throw in a few fills in there also such as :
G:---------12-----14----12----12-|--------------12/-----------------|
D:-------------14----14----14-----|---------/14----------------------|
A:--------------------------------|-0---X--------------------0-3-0---|
E:--------------------------------|----------------------0-3-------3-|
P--------------------] T---------] P T---------]

Chorus :
G:----------------------------------------------------|
D:----------------------------------------------------|
A:-0--------------------------------------------------|
E:---------3/5------------3/5--------------3/5-----|
T--------------------------------------------]

During The Guitar Solos : x3 End with (listen to see how the tempo
is)
G:--------------------------------|--------------------------------------|
D:--------------------------------|--------------------------------------|
A:--------------10---------------|--------------------------------------|
E:-0----0/12----------0-3--0-3----|-0--10p0-9p0-7p0-5p0-4p0-3p0-2p0------|
T--------] P T-----]

The Outro is basically the same as the verse escept adding fills
like i showed you.
So there it is, the bass to Give it Awat By The RHCP. Enjoy!



Get this song at amazon.com      Ebay     Ringtones Ringtones  


Learn to play: Songwriting, Piano, Harmonica, Guitar
More Red Hot Chili Peppers lyrics available at Muzikum

Related Red Hot Chili Peppers Bass Tabs

Black Cross bass
Sikamikahingo bass
Off The Map : Jam bass
Animal Bar Bass bass
Flea - Bass Solo bass
Around The World bass
Mellowship Slinky In B Flat bass
By The Way (Version 2) bass
Funny Face bass
Purple Stain bass
Crosstown Traffic bass
Hump De Bump bass
Naked In Rain bass
Soul To Squeeze (improv Part Near The End) bass
Otherside ( Correct ) bass
On Mercury bass
Soul To Sqeeze (improved) bass
What Is Soul bass
Leverage Of Space bass
Dosed (perfect ;) bass


Guitar Tabs









All tabs are property and copyright of their owners. All tabs provided for educational purposes only. Privacy Policy, DMCA