Red Hot Chili Peppers

Flea:funk Song Bass Tabs



More from Red Hot Chili Peppers

Red Hot Chili Peppers Tabs
Red Hot Chili Peppers Chords
Red Hot Chili Peppers Bass
Red Hot Chili Peppers Lyrics




Funk Song
Red Hot Chili Peppers
Played by Flea in the Funk & Slap Video



Standard Tuning
In the video the x's are sort of a werid sounding crack, but I just play them
muted


Funky

G|----------------|----------------|----------------|------7---------|
D|--------7---7---|5-------7p5-----|--------5---5---|7---7---5-------|
A|------7---------|----7---------7-|------7---------|--------------7-|
E|5---------------|----------------|5---------------|----------------|

G|----------------|----------------|----------------|----------------|
D|--------7---7---|10--9---8---7\--|----------------|--------9-------|
A|------7---------|----------------|--x-----------x-|7-------------x-|
E|5---------------|----------------|----4---5---6---|------5---------|

G|----------------|----------------||
D|--------5/--8/--|6\--------------||
A|------x---------|----------------||
E|4---5-----------|----------------||



Get this song at amazon.com      Ebay     Ringtones Ringtones  


Learn to play: Songwriting, Piano, Harmonica, Guitar
More Red Hot Chili Peppers lyrics available at Muzikum

Related Red Hot Chili Peppers Bass Tabs

Giveitaway bass
Green Heaven bass
Give It Away bass
Transcending bass
Grand Pappy Du Plenty bass
Me And My Friends bass
Overfunk (b-side) (corrected) bass
What It Is bass
Venice Queen bass
Suck My Kiss (correct) bass
So Much I bass
This Velvet Glove bass
Yertle The Turtle bass
Slow Cheetah bass
Hollywood bass
Leverage Of Space Live bass
Flea Solo (@ Multi-show Viva) bass
Fleas Funkadelic Jam bass
Battle Ship bass
Tell Me Baby bass


Guitar Tabs









All tabs are property and copyright of their owners. All tabs provided for educational purposes only. Privacy Policy, DMCA