Red Hot Chili Peppers

Dani California(that's It) Bass Tabs



More from Red Hot Chili Peppers

Red Hot Chili Peppers Tabs
Red Hot Chili Peppers Chords
Red Hot Chili Peppers Bass
Red Hot Chili Peppers Lyrics




Intro
G--------------------------------7------------------|------------------------------7--------------------|
D--------7-----------5--3--------------5h7-5--------|------7-----------5--3-----------------------------|
A--------------------------5--5-----5---------7--5--|------------------------5--5----7-5-7-5-7-----5-7-7|
E--5--5-----5--3--3---------------------------------|5--5-----5--3--3--------------------------5-8------|



Verse 1
G--------------------------------7------------------|--------------------------------7------------------|
D--------7-----------5--3--------------5h7-5--------|--------7-----------5--3------------------5--------|
A--------------------------5--5-----5---------7--5--|--------------------------5--5-----0--5h7----7-5---|
E--5--5-----5--3--3---------------------------------|--5--5-----5--3--3-------------------------------8-|

G--------------------------------7---------5--------|--------------------------------7------------------|
D--------7-----------5--3-----------0--5h7--------5-|--------7-----------5--3--------------5h7-5--------|
A--------------------------5--5---------------5h7---|--------------------------5--5-----5---------7--5--|
E--5--5-----5--3--3---------------------------------|--5--5-----5--3--3---------------------------------|

G--------------------------------7------------------|--------------------------------7------------------|
D--------7-----------5--3--------------5h7-5--------|--------7-----------5--3-------------5h7-7------5--|
A--------------------------5--5-----5---------7--5--|--------------------------5--5----5---------5h7---7|
E--5--5-----5--3--3---------------------------------|--5--5-----5--3--3---------------------------------|

G--------------------------------7------------------|---------------------------------------------------|
D--------7-----------5--3--------------5h7-5--------|--------7-----------5--3---------------------------|
A--------------------------5--5-----5---------7--5--|--------------------------5--5--5--5--5--5--5--5---|
E--5--5-----5--3--3---------------------------------|--5--5-----5--3--3---------------------------------|



Chorus
G------------------------------------------------------|
D------------------------------------------------------|
A--------------3--3--3--3-0h3/5-5-5-5-5-5--------------|x3
E--1--1--1--1------------------------------3--3--3--3--|

G--------------------------------------------------------------|
D--------------------------------------------------------------|
A--------------3--3--3--3-0h3/5-5-5-5r-5--5-5r-5--5-5r-5--5-5r-|
E--1--1--1--1--------------------------------------------------|



Guitar Solo
G--------------------------------7------------------|------------------------------7--------------------|
D--------7-----------5--3--------------5h7-5--------|------7-----------5--3-----------------------------|
A--------------------------5--5-----5---------7--5--|------------------------5--5----7-5-7-5-7-----5-7-7|
E--5--5-----5--3--3---------------------------------|5--5-----5--3--3--------------------------5-8------|







Verse 2
G--------------------------------7------------------|--------------------------------7------------------|
D--------7-----------5--3--------------5h7-5--------|--------7-----------5--3-----------------5---------|
A--------------------------5--5-----5---------7--5--|--------------------------5--5-----0--5h7---7-5----|
E--5--5-----5--3--3---------------------------------|--5--5-----5--3--3------------------------------8--|

G--------------------------------7------------------|---------------------------------------------------|
D--------7-----------5--3--------------5h7-5--------|--------7-----------5--3---------------------------|
A--------------------------5--5-----5---------7--5--|--------------------------5--5--5--5--5--5--5--5---|
E--5--5-----5--3--3---------------------------------|--5--5-----5--3--3---------------------------------|



Chorus x1



Interlude
G---------------------------------------------------|
D--------9------9---9--------------5--4-4--0--2-----|
A----------9------9----9-7h9-----5---------------4--|x3
E--7--7-------7--------------3-3--------------------|

G---------------------------------------------------|
D--------9------9---9-------------------------------|
A----------9------9----9-7h9-------------5--7-------|
E--7--7-------7---------------7--7--5h7--------7\5--|





Verse 3
G--------------------------------7------------------|--------------------------------7-------7----------|
D--------7-----------5--3--------------5h7-5--------|--------7-----------5--3------------5h7---7-5------|
A--------------------------5--5-----5---------7--5--|--------------------------5--5----5-----------7-5--|
E--5--5-----5--3--3---------------------------------|--5--5-----5--3--3---------------------------------|

G--------------------------------7------------------|---------------------------------------------------|
D--------7-----------5--3--------------5h7-5--------|--------7-----------5--3---------------------------|
A--------------------------5--5-----5---------7--5--|--------------------------5--5--5-5--5--5-5-5--5-5-|
E--5--5-----5--3--3---------------------------------|--5--5-----5--3--3---------------------------------|

G----------------------------------------------------------------|
D--5-5-5-5-14--14--14--14-14-14--14--14--------------------------|
A----------------------------------------------------------------|
E----------------------------------------0--0--0--0--0--0--0--0--|




Chorus x1



Chorus last
G------------------------------------------------------|
D------------------------------------------------------|
A--------------3--3--3--3-0h3/5-5-5-5-5-5--------------|x3
E--1--1--1--1------------------------------3--3--3--3--|

G--------------------------------------------------------------------|
D--------------------------------------------------------5h7-7-------|
A--------------3--3--3--3-0h3/5-5-5-5r-5--5-5r-5--5-5r-5-------7p5---|
E--1--1--1--1------------------------------------------------------8-|



guitar solo end
G------------------------------------------------------|
D------------------------------------------------------|
A--------------3--3--3--3-0h3/5-5-5-5-5-5--------------|
E--1--1--1--1------------------------------3--3--3--3--|

G------------------------------------------------------|
D------------------------------------------------------|
A--------------3--3--3--3-0h3/5-5-5-5-8-5--------------|
E--1--1--1--1----------------------------0h3--3--3--3--|

G------------------------------------------------------|
D------------------------------------------------------|
A--------------3--3--3--3-0h3/5-5-5-5-5-5--------------|
E--1--1--1--1----------------------------0h3--3--3--3--|

G----------------------------------------------------------5-7-5---7-5--------|
D--------------------------------------------------------7-------7-----7-5----|
A--------------3--3--3--3-0h3/5-5-5-5--5--5-5r-5--5-5r-5-------------------8--|
E--1--1--1--1-----------------------------------------------------------------|

G------------------------------------------------------|
D------------------------------------------------------|
A--------------3--3--3--3-0h3/5-5-5-5-5-5--------------|
E--1--1--1--1----------------------------0h3--3--3--3--|

G------------------------------------------------------|
D------------------------------------------------------|
A--------------3--3--3--3-0h3/5-5-5-5-5-5--------------|
E--1--1--1--1----------------------------0h3--3--3--3--|

G------------------------------------------------------|
D-----------------------------------------5h7----------|
A--------------3--3--3--3-0h3/5-5-5-5-5-8-----7-5------|
E--1--1--1--1-------------------------------------8-5--|

G------------------------------------------------------|
D------------------------------------------------------|
A-----------------------------------------0--1--2--3--3|
E--1--1--1--1--1--1--1--1--1--1--1--1--1---------------|

G--------------------------2-----3-----4-----5--5--------|
D--2-----3-----4-----5-----------------------------0~----|
A-----3-----3-----3-----3-----3-----3-----3--------------|
E--------------------------------------------------------|



Get this song at amazon.com      Ebay     Ringtones Ringtones  


Learn to play: Songwriting, Piano, Harmonica, Guitar
More Red Hot Chili Peppers lyrics available at Muzikum

Related Red Hot Chili Peppers Bass Tabs

After Hours bass
Havana Affair bass
Pea bass
Carbon bass
Police Helicopter bass
Nobody Weird Like Me bass
If You Have To Ask (verse) bass
Road Trippin' (the True Way) bass
Grand Pappy Du Plenty bass
Can't Stop (easy To Slap) bass
Can't Stop bass
Baby Appeal bass
Green Heaven bass
Dani California (correct) bass
Walkin On Down The Road bass
Aeroplane bass
Off The Map : Jam bass
Why Don't You Love Me - Bass Tab bass
Instrumental #1 bass
Power Of Equality bass


Guitar Tabs









All tabs are property and copyright of their owners. All tabs provided for educational purposes only. Privacy Policy, DMCA