Red Hot Chili Peppers

C'mon Girl (perfect) Bass Tabs



More from Red Hot Chili Peppers

Red Hot Chili Peppers Tabs
Red Hot Chili Peppers Chords
Red Hot Chili Peppers Bass
Red Hot Chili Peppers Lyrics




Song: C\'mon Girl
Artist: Red Hot Chili Peppers
Album: Stadium Arcadium
Tabbed by: esteban herco

Here\'s the complete and right version of the song...
Play it with a pick


Intro:

G|-----7799----9977-| x2
D|---99------99-----|
A|-77------77-------|
E|------------------|


Verse:

G|-----7799----9977-| x2
D|---99------99-----|
A|-77------77-------|
E|------------------|

G|-----77----------------------------|
D|-5555--55-----77-------99-------55-|
A|----------5555--55-7777--77-3333---|
E|-----------------------------------|


Bridge:

G|--------------4455--------------6677-| x2
D|-----6677---55---------4455---77-----|
A|---77-----33---------55-----55-------|
E|-55----------------33----------------|

G|-------------------------------------|
D|-------------------/9-999999999------|
A|-------------------------------------|
E|-7-7--77--7-7--77--------------------|


Chorus:

G|----------------------------------------| x4
D|--------5------------------5------------|
A|--7-7-7---5-------5--7-7-7---5----------|
E|------------7-7-7--------------77-77-77-|


>Variations:
G|-----------------------------------7---9-7--|
D|--------5------------------5---7-9---9------|
A|--7-7-7---5-------5--7-7-7---5--------------|
E|------------7-7-7---------------------------|



>Ending:
G|----------------------------------7---9-7-------|
D|--------5------------------5--7/9---9-----9-7---|
A|--7-7-7---5-------5--7-7-7--------------------7-|
E|------------7-7-7-------------------------------|



Get this song at amazon.com      Ebay     Ringtones Ringtones  


Learn to play: Songwriting, Piano, Harmonica, Guitar
More Red Hot Chili Peppers lyrics available at Muzikum

Related Red Hot Chili Peppers Bass Tabs

Californication bass
Brandy bass
Subway To Venus (complete) bass
I Could Have Lied bass
Can't Stop (easy To Slap) bass
Fu bass
Savior bass
Bunker Hill bass
Purple Stain bass
One Hot Minute bass
The Righteous And The Wicked bass
Can't Stop (correct) bass
Show Me Your Soul bass
Arpeggiating bass
Californication (100% Correct!) bass
The Adventures Of Raindance Maggie bass
After Hours bass
Flea Video Bass Tab bass
Californication (live At Slane) bass
Backwoods bass


Guitar Tabs









All tabs are property and copyright of their owners. All tabs provided for educational purposes only. Privacy Policy, DMCA