Misc Unsigned Bands

Mallard - Chug Your Knowledge Tabs



More from Misc Unsigned Bands

Misc Unsigned Bands Tabs
Misc Unsigned Bands Chords
Misc Unsigned Bands Bass

this for the intro
E  :3---3---3---3---|3---3---3---3---|3---3---3---3---|3---3---3---3---|
C  :0---4---0---4---|0---4---2---4---|0---4---0---4---|0---4---4---2---|
G  :0---0---0---0---|0---0---0---0---|0---0---0---0---|0---0---0---0---|
C  :2---2---2---2---|2---2---2---2---|2---2---2---2---|2---2---2---2---|
A  :----------------|----------------|----------------|----------------|
F  :----------------|----------------|----------------|----------------|
and then 
E  :3---------------|
C  :0---------------|
G  :0---------------|
C  :2---------------|
A  :----------------|
F  :----------------|
and it goes something like this
E  :3-p0-0----------0----------0-----|
C  :0----2-h4-p2-p0-2-h4-p2-p0-0-2-0-|
G  :0----0----------0----------0-----|
C  :2----2----------2----------0-----|
A  :---------------------------------|
F  :---------------------------------|
then the rising chords sound sort of like this
E  :------------------------------------------|
C  :------------------------------------------|
G  :0-0-0--0-0-0--0--0--0--0--0--0--0--0--0--0|
C  :2-2-2-/4-4-4-/7--7--7--7--7--7-12-12-12--0|
A  :3-3-3-/5-5-5-/8-10-10-10-10-10-10-10-10-15|
F  :0-0-0--0-0-0--0--0--0--0--0--0--0--0--0--0|
with this inbetween
E  :3-p0-----------------3-p0----------------| x2
C  :-----2-h4-p2-p0-h2-0------2-h4-p2-p0-h2-0|
G  :-----------------------------------------|
C  :-----------------------------------------|
A  :-----------------------------------------|
F  :-----------------------------------------|
and then
E  :--0---3---0---0-|--0---8---0---0-|
C  :----0-------0---|----0-------0---|
G  :5---------------|5---------------|
C  :----------------|----------------|
A  :----------------|----------------|
F  :----------------|----------------|
then these chords for the rest of the song!
E  :3-3-3-3--3-3-3-3---|
C  :0-0-0-0--4-4-4-4-p0|
G  :5-5-5-5-p0-0-0-0---|
C  :5-5-5-5-p0-0-0-0---|
A  :-------------------|
F  :-------------------|
Get this song at amazon.com      Ebay     Ringtones Ringtones  


Learn to play: Songwriting, Piano, Harmonica, Guitar

Related Misc Unsigned Bands Tabs

A Final Misconception - I Cant Remember tabs
Reduced To Clear - Collection Of Smashed Bottles tabs
Queen Of Needles - Saviour tabs
Summer Birds - Sweet Passing Days tabs
This Side Down - Liesbroken Hearts And The Kid That Looks Like Me tabs
The Old 319 - Halloween tabs
Stalking Susan - Running In The Rain Bass tabs
Dicks In The Sun - She Is Naked tabs
Last Stitch Failure - A Hole Mended tabs
In Theory - Hello Other tabs
Alloy - Stop The Bus I Want To Get Off tabs
Cagardner - Tiptoe To Your Death tabs
St Loki - Ready Intro tabs
Automatic Shutdown - Girl Next Dorr tabs
V3o2version - Nonviolence tabs
Dysfunction - Sweetness Of Hell tabs
Two Kings - A Song For The End tabs
Fallen Edge - Break The Waves tabs
Martin Garrix - Wizard tabs
Whisky Rebellion - Bitch Slap To Life Bass tabs


Guitar Tabs









All tabs are property and copyright of their owners. All tabs provided for educational purposes only. Privacy Policy, DMCA