Misc Unsigned Bands

Misc Unsigned Bands - Fatt Experiment - Lusty Muffins guitar tab

Tabbed by TFE Member SPITS

s = slide

v = vibrato

E|-----------------------------------2-2-2-2-----|

B|------------------------2-2-2-2----3-3-3-3-----|

G|--5-5-5-5----7-7-7-7----2-2-2-2----2-2-2-2-----|

D|--5-5-5-5----5-5-5-5----2-2-2-2----0-0-0-0-----|

A|--3-3-3-3----5-5-5-5----0-0-0-0----------------|

E|-----------------------------------------------|

(Verse)

E|--1------2-2-----------------------------------|

B|--1-1----3-3----1------2-2---------------------|

G|--2-2----2-2----0-1----2-2---------------------|

D|--3-2----0-0----2-2----2-2---------------------|

A|----------------3-2----0-0---------------------|

E|------------------0----------------------------|

(chorus)

Play the F and Aminor (2 eight notes) during "Lusty" and the D major on "Muffins" (2 eight

notes).

Then play the C and E as 2 eight notes and the A major as 2 eight notes.

E|--5-5-5-5-----------------------------9--9--9--9-|

B|--5-5-5-5----------------------------10--10-10-10|

G|--5-5-5-5-----------------------------9--9--9--9-|

D|--7-7-7-7----6-6-6-6----11-11-11-11--------------|

A|--7-7-7-7----7-7-7-7-----9--9--9--9--------------|

E|--5-5-5-5----7-7-7-7----10-10-10-10--------------|

(Bridge)

E|----------------------------6--8-----6--8--------|

B|----6--8-------6-8----------------9--------9vvvvv|

G|--9------5---9-----5vvvvvv-----------------------|

D|-------------------------------------------------|

A|-------------------------------------------------|

E|-------------------------------------------------|

E|--8--7-------------------------------------------|

B|-------8----------------8-5----------------------|

G|----------7--9--9-7s5----------------------------|

D|-------------------------------------------------|

A|-------------------------------------------------|

E|-------------------------------------------------|

(Optional solo)

Get this song at:  amazon.com sheetmusicplus.com

Share your thoughts

0 Comments found