Misc Unsigned Bands

Misc Unsigned Bands - None Of The Above - Realize guitar tab

-------------------------------------------------------------------------------

Realize - None Of The Above

-------------------------------------------------------------------------------

Young Band just starting out, actually its my band and i play guitar but

out Site is Noneoftheabove41.tripod.com or wakeup.to/nota

Tabbed by: Sabri Dadevski

Email: Sum41stud134@cs.com

Tuning: Standard Tuning

* Scratch

~ let ring

x Palm mute

Intro 1

A F# D E Guitar 1

e|---------------------------------------------------------------------------|

B|---------------------------------------------------------------------------|

G|---------------------------------7-----------------------------------------|

D|---7---------------4-------------7-------------2---------------------------|

A|---7---------------4-------------5-------------2---------------------------|

E|---5---------------2---------------------------0---------------------------|

X x x x

Guitar 2

e|---------------------------------------------------------------------------|

B|---------------------------------------------------------------------------|

G|---------------------------------------------------------------------------|

D|-------7-6-------------4-5------------4-5------------6-7-------------------|

A|---------------------------------------------------------------------------|

E|---------------------------------------------------------------------------|

Intro 2

A F# D E Guitar 1

e|---------------------------------------------------------------------------|

B|---------------------------------------------------------------------------|

G|---------------------7777--------------------------------------------------|

D|--7777-----4444------7777----9999------------------------------------------|

A|--7777-----4444------5555----9999------------------------------------------|

E|--5555-----2222--------------7777------------------------------------------|

Guitar 2

e|---------------------------------------------------------------------------|

B|---------------------------------------------------------------------------|

G|---------------------------------------------------------------------------|

D|-----76-------45--------45------67-----------------------------------------|

A|---------------------55------77--------------------------------------------|

E|--55-------22--------------------------------------------------------------|

Verse Both Guitars

e|---------------------------------------------------------------------------|

B|---------------------------------------------------------------------------|

G|-------------------xx7xx7--------------------------------------------------|

D|-xx7xx7---xx4xx4---xx7xx7----xx2xx2--times 4-------------------------------|

A|-xx7xx7---xx4xx4---xx5xx5----xx2xx2----------------------------------------|

E|-xx5xx5---xx2xx2-------------xx0xx0----------------------------------------|

Intro 2

Pre-Chorus B A D E

e|---------------------------------------------------------------------------|

B|---------------------------------------------------------------------------|

G|------------------------------------------7777777777-------9999999999~~----|

D|---------9999999999------7777777777-------7777777777-------9999999999~~----|

A|---------9999999999------7777777777-------5555555555-------7777777777~~----|

E|---------7777777777------5555555555----------------------------------------|

Chorus A F# D E

e|---------------------------------------------------------------------------|

B|---------------------------------------------------------------------------|

G|---------------------------77777-99999-------------------------------------|

D|--------777-------444------77777-99999---Times 2---------------------------|

A|--------777-------444------55555-77777-------------------------------------|

E|--------555-------222------------------------------------------------------|

Intro 2

Bridge 1

e|---------------------------------------------------------------------------|

B|---------------------------------------------------------------------------|

G|-------------------------*****-7-------------------------------------------|

D|--*****-7-----*****-4----*****-7----*****-2--------------------------------|

A|--*****-7-----*****-4----*****-5----*****-2--------------------------------|

E|--*****-5-----*****-2---------------*****-0--------------------------------|

Bridge 2

e|---------------------------------------------------------------------------|

B|---------------------------------------------------------------------------|

G|----------------------7~~~-------------------------------------------------|

D|----7~~~----4~~~------7~~~----2~~~-----times 2-----------------------------|

A|----7~~~----4~~~------5~~~----2~~~-----------------------------------------|

E|----5~~~----2~~~--------------0~~~-----------------------------------------|

Song order

Intro 1

Intro 2

Verse

Intro 2

Verse

Pre Chorus

Chorus

Intro 2

Verse

Pre Chorus

Chorus

INtro 2

Bridge 1

Bridge 2

Chorus

Intro 2

Get this song at:  amazon.com sheetmusicplus.com

Share your thoughts

0 Comments found