Misc Unsigned Bands

Misc Unsigned Bands - The Courteeners - Acrylic guitar tab

Song:Acrylic

Band:The courteeners

Tabbed by ste Cocker

sorry bout 1st version got the sizing fucked up should show up right now enjoy

cant be bothered putting chords down agen you can see what they are on the intro!

Capo 2nd fret standard tuning

Intro

C10

e|-0-

B|-8-

G|-0- for 4 bars

D|-9-

A|-10

E|---

c10 c5 c c5

e|-0- 0- 0--10-8--0-0-0--5-3--0-0-0--3-0--0-0-0--3-5----|

B|-8- 8- 8--------3-3-3-------1-1-1-------3-3-3---------|

G|-0- 0- 0--------0-0-0-------0-0-0-------0-0-0---------| X 2

D|-9- 9- 9--------4-4-4-------2-2-2-------4-4-4---------|

A|-10-10-10-------5-5-5-------3-3-3-------5-5-5---------|

E|------------------------------------------------------|

Verse 1

C10

your just like plasticine being molded into a libertine dream

C5 C C5

i feel so sorry for you

C10 C5 C C5

if you were 13 i'd let you off but your not so you should no better

_____________________________________________________________________________

Both parts playied in unison

C10 C5 C C5

gather my thoughts on a notepad with a parker pen ill write you a letter but

C10 C C5

there's not enough paper in the world

C10

there's not enough paper in the world have you heard all your friends go

c10 c5 c c5 c10 c c5

e|-------/10-8-7--8-7--------------7-----7-----7-----7---|

B|-/8--8--------------10-8-10-7--8---8-8---8-8---8-8---8-|

G|-------------------------------------------------------|

D|-------------------------------------------------------|

A|-------------------------------------------------------|

E|-------------------------------------------------------|

c10

e|--7-----7-----7-----7--|

B|8---8-8---8-8---8-8---8|

G|-----------------------|

D|-----------------------|

A|-----------------------|

E|-----------------------|

_____________________________________________________________________________

Chorus

______________________________________________

both parts played in unison

C10 C5

dally ad dally ad la looo

C C5

all the words you seem to know

C10 C5

all teh words in your songs go

C C5

dally ad dally ad la looo

c10 c5 c c5

e|---5---5---5---5---5---5---5---5-|

B|-8---8---7---7---8---8---7---7---|

G|---------------------------------|

D|---------------------------------|

A|---------------------------------|

E|---------------------------------|

____________________________________________________

___________________________________________________

both parts played in unison

C10 C5 C c5

you've got an ok jacket but you've got no spine

C10 C5 C C5

please vacate this city of mine.

c10 c5 c c5

e|-5-5-5-5---5-5-5-5---5-5-5-5---5-5-5-5-|

B|-8-8-8-8---7-7-7-7---8-8-8-8---7-7-7-7-|

G|---------------------------------------|

D|---------------------------------------|

A|---------------------------------------|

E|---------------------------------------|

__________________________________________________

C10 C5 C C5

e|--------7------------10-8-7--|

B|-8-10-8---10-8---8-----------|

G|---------------9---9---------| X2

D|-----------------------------|

A|-----------------------------|

E|-----------------------------|

Interlude

c10 c5 c c5

e|-0- 0- 0--10-8--0-0-0--5-3--0-0-0--3-0--0-0-0--3-5----|

B|-8- 8- 8--------3-3-3-------1-1-1-------3-3-3---------|

G|-0- 0- 0--------0-0-0-------0-0-0-------0-0-0---------| X 2

D|-9- 9- 9--------4-4-4-------2-2-2-------4-4-4---------|

A|-10-10-10-------5-5-5-------3-3-3-------5-5-5---------|

E|------------------------------------------------------|

Verse 2

c10 c5 c c5

I only wish you had the songs to back up your what took you so long?

________________________________________________________________________

both parts played in unison

c10 c5 c

But we know that's not the case, rather show your face

c5 c10

In an ancient bar that nobody goes in

c c5 c10

Because they serve some standerd gin nobody goes in there

Did you win? Did they ask? Well no one cares

c10 c5 c c5 c10 c c5

e|-------/10-8-7--8-7--------------7-----7-----7-----7---|

B|-/8--8--------------10-8-10-7--8---8-8---8-8---8-8---8-|

G|-------------------------------------------------------|

D|-------------------------------------------------------|

A|-------------------------------------------------------|

E|-------------------------------------------------------|

c10

e|--7-----7-----7-----7--|

B|8---8-8---8-8---8-8---8|

G|-----------------------|

D|-----------------------|

A|-----------------------|

E|-----------------------|

_______________________________________________________________________

Chorus

______________________________________________

both parts played in unison

C10 C5

dally ad dally ad la looo

C C5

all the words you seem to know

C10 C5

all teh words in your songs go

C C5

dally ad dally ad la looo

c10 c5 c c5

e|---5---5---5---5---5---5---5---5-|

B|-8---8---7---7---8---8---7---7---|

G|---------------------------------|

D|---------------------------------|

A|---------------------------------|

E|---------------------------------|

____________________________________________________

___________________________________________________

both parts played in unison

C10 C5 C c5

you've got an ok jacket but you've got no spine

C10 C5 C C5

please vacate this city of mine.

c10 c5 c c5

e|-5-5-5-5---5-5-5-5---5-5-5-5---5-5-5-5-|

B|-8-8-8-8---7-7-7-7---8-8-8-8---7-7-7-7-|

G|---------------------------------------|

D|---------------------------------------|

A|---------------------------------------|

E|---------------------------------------|

__________________________________________________

C10 C5 C C5

e|--------7------------10-8-7--|

B|-8-10-8---10-8---8-----------|

G|---------------9---9---------| X2

D|-----------------------------|

A|-----------------------------|

E|-----------------------------|

Verse 3

C10 let ring

your just like plasticine being molded into a libertine dream

C5 C C5

i feel so sorry for you

_____________________________________________________________________________

Both parts playied in unison

C10 C5 C C5

if you were 13 i'd let you off but your not so you should no better

C10 C5 C C5

gather my thoughts on a notepad with a parker pen ill write you a letter but

c10 c5 c c5 c10 c5 c c5

e|-10-8-7--------7---10-8-7--------7---10-8-7--------7---10-8-7--------7---|

B|----------8-10--------------8-10--------------8-10--------------8-10-----|

G|-------------------------------------------------------------------------|

D|-------------------------------------------------------------------------|

A|-------------------------------------------------------------------------|

E|-------------------------------------------------------------------------|

____________________________________________________________________________

Both parts playied in unison

C10 C C5

there's not enough paper in the world

C10

there's not enough paper in the world have you heard all your friends go

c10 c c5 c10

e|---7-----7-----7-----7-----7-----7-----7-----7-----|

B|-8---8-8---8-8---8-8---8-8---8-8---8-8---8-8---8---|

G|---------------------------------------------------|

D|---------------------------------------------------|

A|---------------------------------------------------|

E|---------------------------------------------------|

______________________________________________________________________________

Chorus

______________________________________________

both parts played in unison

C10 C5

dally ad dally ad la looo

C C5

all the words you seem to know

C10 C5

all teh words in your songs go

C C5

dally ad dally ad la looo

c10 c5 c c5

e|---5---5---5---5---5---5---5---5-|

B|-8---8---7---7---8---8---7---7---|

G|---------------------------------|

D|---------------------------------|

A|---------------------------------|

E|---------------------------------|

____________________________________________________

___________________________________________________

both parts played in unison

C10 C5 C c5

you've got an ok jacket but you've got no spine

C10 C5 C C5

please vacate this city of mine.

c10 c5 c c5

e|-5-5-5-5---5-5-5-5---5-5-5-5---5-5-5-5-|

B|-8-8-8-8---7-7-7-7---8-8-8-8---7-7-7-7-|

G|---------------------------------------|

D|---------------------------------------|

A|---------------------------------------|

E|---------------------------------------|

__________________________________________________

outro

c10 c5 c c5

e|-0- 0- 0--10-8--0-0-0--5-3--0-0-0--3-0--0-0-0--3-5----|

B|-8- 8- 8--------3-3-3-------1-1-1-------3-3-3---------|

G|-0- 0- 0--------0-0-0-------0-0-0-------0-0-0---------| X 2

D|-9- 9- 9--------4-4-4-------2-2-2-------4-4-4---------|

A|-10-10-10-------5-5-5-------3-3-3-------5-5-5---------|

E|------------------------------------------------------|

C10 c5 c c5 c10 c5

e|-----------------------------101010-8-7------------101010-8-7|

B|-8-10-8-10-b12bbr--8-10-8-10-------------8-10-8-10-----------|

G|-------------------------------------------------------------|

D|-------------------------------------------------------------|

A|-------------------------------------------------------------|

E|-------------------------------------------------------------|

c10 c5 c10 let ring c10

e|----------101010-8-7-----------------101010-8-7-|

B|8-10-8-10--------------------------------------8|

G|------------------------------------------------|

D|------------------------------------------------|

A|------------------------------------------------|

E|------------------------------------------------|

it's about 99% right i hope, enjoy

any question or correction just email: webmaster at tabs-database.com.com

Added by tabs-database.com and our distinguished partners

Get this song at:  amazon.com sheetmusicplus.com

Share your thoughts

0 Comments found