Misc Unsigned Bands

Misc Unsigned Bands - The 11th Commandment - Powersurge guitar tab

Band-The 11th Commandment

Song-Powersurge

Yes, this needs distortion.

Rhythm(1)-

E|-------2----0--0----2-2--2-2---0--0--------|Repeat 2x

B|-------3----2--2----3-3--3-3---2--2--------|

G|-------2----2--2----2-2--2-2---2--2--------|

D|-------0----2--2----0-0--0-0---2--2--------|

A|-------------------------------------------|

E|-------------------------------------------|

Rhythm(2)-

Let the notes ring.

E|-----2------0----------2------0----------|

B|-----3------2----------3------2----------|

G|-----2------2----------2------2----------|

D|-----0------2----------0------2----------|

A|-----------------------------------------|

E|-----------------------------------------|

Lead/Solo:

Play Random Lead That Goes Along With Song

Chorus:

E|-------2----0--0----2-2--2-2---0--0-------|Repeat 2x

B|-------3----2--2----3-3--3-3---2--2-------|

G|-------2----2--2----2-2--2-2---2--2-------|

D|-------0----2--2----0-0--0-0---2--2-------|

A|------------------------------------------|

E|------------------------------------------|

Rhythm(3)- Lead-

Don't let these notes ring. Play same Time as Rhythm(3)

E|----2--2---0--0---|Repeat 3x E|-----------------------------------|

B|----3--3---2--2---| B|------12b--12--10---10-10----------|

G|----2--2---2--2---| G|-----------------------------------|

D|----0--0---2--2---| D|-----------------------------------|

A|------------------| A|-----------------------------------|

E|------------------| E|-----------------------------------|

Rhythm(2)-

E|-----2------0-------x----||

B|-----3------2-------x----||

G|-----2------2-------x----||

D|-----0------2-------x----||

A|-------------------------||

E|-------------------------||

Added by tabs-database.com and our distinguished partners

Get this song at:  amazon.com sheetmusicplus.com

Share your thoughts

0 Comments found