Misc Unsigned Bands

Misc Unsigned Bands - The Immortal Change - Helium guitar tab

INtro

e|13------|

b|--111011|

g|--------|

d|--------|

a|--------|

E|--------|x8 eighth time play without the last 11

VERSE

e|--131110--------|

b|11------11101113|

g|----------------|

d|----------------|

a|----------------|

E|----------------|x4

BRIDGE

e|131110--131110----|

b|------11------1113|

g|------------------|

d|------------------|

a|------------------|

E|------------------|x2

CHORUS

e|-----------------------------------------------------------------|

b|-----------------------------------------------------------------|

g|66666666699999999444444446666666666666666999999994444444422222222|

d|66666666699999999444444446666666666666666999999994444444422222222|

a|44444444477777777222222224444444444444444777777772222222200000000|

E|xxxxxxxxxxxxxxxxxxxxxxxxxxxxxxxxxxxxxxxxxxxxxxxxxxxxxxxxxxxxxxxxx|

VERSE

e|--131110--------|

b|11------11101113|

g|----------------|

d|----------------|

a|----------------|

E|----------------|x4

BRIDGE

e|131110--131110----|

b|------11------1113|

g|------------------|

d|------------------|

a|------------------|

E|------------------|x2

CHORUS

e|-----------------------------------------------------------------|

b|-----------------------------------------------------------------|

g|66666666699999999444444446666666666666666999999994444444422222222|

d|66666666699999999444444446666666666666666999999994444444422222222|

a|44444444477777777222222224444444444444444777777772222222200000000|

E|xxxxxxxxxxxxxxxxxxxxxxxxxxxxxxxxxxxxxxxxxxxxxxxxxxxxxxxxxxxxxxxxx|

Solo/Middlesection

e|13------|

b|--111011|

g|--------|

d|--------|

a|--------|

E|--------|x4 last time no 11 at the end

e|10-----13111011-----------10--------10--------11--------11--------|

b|--111011-------11101113119--11101110--11101110--12111211--12111211|

g|------------------------------------------------------------------|

d|------------------------------------------------------------------|

a|------------------------------------------------------------------|

E|------------------------------------------------------------------|

e|10--------10--------13--------13----------------------------------------|

b|--11101110--11101110--14131413--1413141313161516151615161516131513161315|

g|------------------------------------------------------------------------|

d|------------------------------------------------------------------------|

a|------------------------------------------------------------------------|

E|------------------------------------------------------------------------|

e|13p012p010p09p07p05p04p02p0-0 0h24p04p07p057p07p00h24p04p07p057p07p0|

b|--------------------------------------------------------------------|

g|--------------------------------------------------------------------|

d|--------------------------------------------------------------------|

a|--------------------------------------------------------------------|

E|--------------------------------------------------------------------|

e|0h24p04p07p057p07p00h24p04p07p057p07p012~~~~~|

b|---------------------------------------------|

g|---------------------------------------------|

d|---------------------------------------------|

a|---------------------------------------------|

E|---------------------------------------------|

CHORUS

e|-----------------------------------------------------------------|

b|-----------------------------------------------------------------|

g|66666666699999999444444446666666666666666999999994444444422222222|

d|66666666699999999444444446666666666666666999999994444444422222222|

a|44444444477777777222222224444444444444444777777772222222200000000|

E|xxxxxxxxxxxxxxxxxxxxxxxxxxxxxxxxxxxxxxxxxxxxxxxxxxxxxxxxxxxxxxxxx|x2

OUTRO

e|------15------------15------------12-----------12------|

b|----15--17--------15--17--------13--16--------13-16----|

g|--15------17----15------17----14------16----14-----16--|

d|17----------1717----------1716----------1616---------16|

a|-------------------------------------------------------|

E|-------------------------------------------------------|times 4

du la excellentAdded by tabs-database.com and our distinguished partners

Get this song at:  amazon.com sheetmusicplus.com

Share your thoughts

0 Comments found